  0
SECTION
  2
HEADER
  9
$ACADVER
  1
AC1015
  9
$ACADMAINTVER
 70
     6
  9
$DWGCODEPAGE
  3
ANSI_1254
  9
$INSBASE
 10
0.0
 20
0.0
 30
0.0
  9
$EXTMIN
 10
0.0
 20
0.0
 30
0.0
  9
$EXTMAX
 10
279.4
 20
215.9
 30
0.0
  9
$LIMMIN
 10
0.0
 20
0.0
  9
$LIMMAX
 10
279.4
 20
215.9
  9
$ORTHOMODE
 70
     0
  9
$REGENMODE
 70
     1
  9
$FILLMODE
 70
     1
  9
$QTEXTMODE
 70
     0
  9
$MIRRTEXT
 70
     1
  9
$LTSCALE
 40
1.0
  9
$ATTMODE
 70
     1
  9
$TEXTSIZE
 40
3.5
  9
$TRACEWID
 40
1.0
  9
$TEXTSTYLE
  7
Standard
  9
$CLAYER
  8
0
  9
$CELTYPE
  6
ByLayer
  9
$CECOLOR
 62
   256
  9
$CELTSCALE
 40
1.0
  9
$DISPSILH
 70
     0
  9
$DIMSCALE
 40
1.0
  9
$DIMASZ
 40
3.5
  9
$DIMEXO
 40
1.0
  9
$DIMDLI
 40
3.75
  9
$DIMRND
 40
0.0
  9
$DIMDLE
 40
0.0
  9
$DIMEXE
 40
1.0
  9
$DIMTP
 40
0.0
  9
$DIMTM
 40
0.0
  9
$DIMTXT
 40
3.5
  9
$DIMCEN
 40
2.5
  9
$DIMTSZ
 40
0.0
  9
$DIMTOL
 70
     0
  9
$DIMLIM
 70
     0
  9
$DIMTIH
 70
     1
  9
$DIMTOH
 70
     1
  9
$DIMSE1
 70
     0
  9
$DIMSE2
 70
     0
  9
$DIMTAD
 70
     1
  9
$DIMZIN
 70
     0
  9
$DIMBLK
  1

  9
$DIMASO
 70
     1
  9
$DIMSHO
 70
     1
  9
$DIMPOST
  1

  9
$DIMAPOST
  1

  9
$DIMALT
 70
     0
  9
$DIMALTD
 70
     3
  9
$DIMALTF
 40
0.0393700787
  9
$DIMLFAC
 40
1.0
  9
$DIMTOFL
 70
     1
  9
$DIMTVP
 40
0.0
  9
$DIMTIX
 70
     0
  9
$DIMSOXD
 70
     0
  9
$DIMSAH
 70
     0
  9
$DIMBLK1
  1

  9
$DIMBLK2
  1

  9
$DIMSTYLE
  2
ISO-25
  9
$DIMCLRD
 70
     0
  9
$DIMCLRE
 70
     0
  9
$DIMCLRT
 70
     0
  9
$DIMTFAC
 40
1.0
  9
$DIMGAP
 40
1.524
  9
$DIMJUST
 70
     0
  9
$DIMSD1
 70
     0
  9
$DIMSD2
 70
     0
  9
$DIMTOLJ
 70
     0
  9
$DIMTZIN
 70
     0
  9
$DIMALTZ
 70
     0
  9
$DIMALTTZ
 70
     0
  9
$DIMUPT
 70
     0
  9
$DIMDEC
 70
     2
  9
$DIMTDEC
 70
     2
  9
$DIMALTU
 70
     2
  9
$DIMALTTD
 70
     3
  9
$DIMTXSTY
  7
Standard
  9
$DIMAUNIT
 70
     0
  9
$DIMADEC
 70
     2
  9
$DIMALTRND
 40
0.0
  9
$DIMAZIN
 70
     0
  9
$DIMDSEP
 70
    44
  9
$DIMATFIT
 70
     3
  9
$DIMFRAC
 70
     0
  9
$DIMLDRBLK
  1

  9
$DIMLUNIT
 70
     2
  9
$DIMLWD
 70
    -2
  9
$DIMLWE
 70
    -2
  9
$DIMTMOVE
 70
     0
  9
$LUNITS
 70
     2
  9
$LUPREC
 70
     2
  9
$SKETCHINC
 40
1.0
  9
$FILLETRAD
 40
10.0
  9
$AUNITS
 70
     0
  9
$AUPREC
 70
     2
  9
$MENU
  1
.
  9
$ELEVATION
 40
0.0
  9
$PELEVATION
 40
0.0
  9
$THICKNESS
 40
0.0
  9
$LIMCHECK
 70
     0
  9
$CHAMFERA
 40
0.0
  9
$CHAMFERB
 40
0.0
  9
$CHAMFERC
 40
0.0
  9
$CHAMFERD
 40
0.0
  9
$SKPOLY
 70
     0
  9
$TDCREATE
 40
2458985.718145046
  9
$TDUCREATE
 40
2458985.593145046
  9
$TDUPDATE
 40
2458985.718145312
  9
$TDUUPDATE
 40
2458985.593145312
  9
$TDINDWG
 40
0.0000000116
  9
$TDUSRTIMER
 40
0.0000000116
  9
$USRTIMER
 70
     1
  9
$ANGBASE
 50
0.0
  9
$ANGDIR
 70
     0
  9
$PDMODE
 70
     0
  9
$PDSIZE
 40
-1.0
  9
$PLINEWID
 40
0.0
  9
$SPLFRAME
 70
     0
  9
$SPLINETYPE
 70
     6
  9
$SPLINESEGS
 70
     8
  9
$HANDSEED
  5
DD
  9
$SURFTAB1
 70
     6
  9
$SURFTAB2
 70
     6
  9
$SURFTYPE
 70
     6
  9
$SURFU
 70
     6
  9
$SURFV
 70
     6
  9
$UCSBASE
  2

  9
$UCSNAME
  2

  9
$UCSORG
 10
0.0
 20
0.0
 30
0.0
  9
$UCSXDIR
 10
1.0
 20
0.0
 30
0.0
  9
$UCSYDIR
 10
0.0
 20
1.0
 30
0.0
  9
$UCSORTHOREF
  2

  9
$UCSORTHOVIEW
 70
     0
  9
$UCSORGTOP
 10
0.0
 20
0.0
 30
0.0
  9
$UCSORGBOTTOM
 10
0.0
 20
0.0
 30
0.0
  9
$UCSORGLEFT
 10
0.0
 20
0.0
 30
0.0
  9
$UCSORGRIGHT
 10
0.0
 20
0.0
 30
0.0
  9
$UCSORGFRONT
 10
0.0
 20
0.0
 30
0.0
  9
$UCSORGBACK
 10
0.0
 20
0.0
 30
0.0
  9
$PUCSBASE
  2

  9
$PUCSNAME
  2

  9
$PUCSORG
 10
0.0
 20
0.0
 30
0.0
  9
$PUCSXDIR
 10
1.0
 20
0.0
 30
0.0
  9
$PUCSYDIR
 10
0.0
 20
1.0
 30
0.0
  9
$PUCSORTHOREF
  2

  9
$PUCSORTHOVIEW
 70
     0
  9
$PUCSORGTOP
 10
0.0
 20
0.0
 30
0.0
  9
$PUCSORGBOTTOM
 10
0.0
 20
0.0
 30
0.0
  9
$PUCSORGLEFT
 10
0.0
 20
0.0
 30
0.0
  9
$PUCSORGRIGHT
 10
0.0
 20
0.0
 30
0.0
  9
$PUCSORGFRONT
 10
0.0
 20
0.0
 30
0.0
  9
$PUCSORGBACK
 10
0.0
 20
0.0
 30
0.0
  9
$USERI1
 70
     0
  9
$USERI2
 70
     0
  9
$USERI3
 70
     0
  9
$USERI4
 70
     0
  9
$USERI5
 70
     0
  9
$USERR1
 40
0.0
  9
$USERR2
 40
0.0
  9
$USERR3
 40
0.0
  9
$USERR4
 40
0.0
  9
$USERR5
 40
0.0
  9
$WORLDVIEW
 70
     1
  9
$SHADEDGE
 70
     3
  9
$SHADEDIF
 70
    70
  9
$TILEMODE
 70
     1
  9
$MAXACTVP
 70
    64
  9
$PINSBASE
 10
0.0
 20
0.0
 30
0.0
  9
$PLIMCHECK
 70
     0
  9
$PEXTMIN
 10
1.0000000000E+20
 20
1.0000000000E+20
 30
1.0000000000E+20
  9
$PEXTMAX
 10
-1.0000000000E+20
 20
-1.0000000000E+20
 30
-1.0000000000E+20
  9
$PLIMMIN
 10
0.0
 20
0.0
  9
$PLIMMAX
 10
420.0
 20
297.0
  9
$UNITMODE
 70
     0
  9
$VISRETAIN
 70
     1
  9
$PLINEGEN
 70
     0
  9
$PSLTSCALE
 70
     1
  9
$TREEDEPTH
 70
  3020
  9
$CMLSTYLE
  2
Standard
  9
$CMLJUST
 70
     0
  9
$CMLSCALE
 40
20.0
  9
$PROXYGRAPHICS
 70
     1
  9
$MEASUREMENT
 70
     1
  9
$CELWEIGHT
370
    -1
  9
$ENDCAPS
280
     0
  9
$JOINSTYLE
280
     0
  9
$LWDISPLAY
290
     1
  9
$INSUNITS
 70
     4
  9
$HYPERLINKBASE
  1

  9
$STYLESHEET
  1

  9
$XEDIT
290
     1
  9
$CEPSNTYPE
380
     0
  9
$PSTYLEMODE
290
     1
  9
$FINGERPRINTGUID
  2
{15fb0dc8-e886-4f0b-a3eb-8a76bbfe9c03}
  9
$VERSIONGUID
  2
{FAEB1C32-E019-11D5-929B-00C0DF256EC4}
  9
$EXTNAMES
290
     1
  9
$PSVPSCALE
 40
0.0
  9
$OLESTARTUP
290
     0
  0
ENDSEC
  0
SECTION
  2
CLASSES
  0
CLASS
  1
ACDBDICTIONARYWDFLT
  2
AcDbDictionaryWithDefault
  3
ObjectDBX Classes
 90
        0
280
     0
281
     0
  0
CLASS
  1
VISUALSTYLE
  2
AcDbVisualStyle
  3
ObjectDBX Classes
 90
     4095
280
     0
281
     0
  0
CLASS
  1
MATERIAL
  2
AcDbMaterial
  3
ObjectDBX Classes
 90
     1153
280
     0
281
     0
  0
CLASS
  1
SCALE
  2
AcDbScale
  3
ObjectDBX Classes
 90
     1153
280
     0
281
     0
  0
CLASS
  1
TABLESTYLE
  2
AcDbTableStyle
  3
ObjectDBX Classes
 90
     4095
280
     0
281
     0
  0
CLASS
  1
MLEADERSTYLE
  2
AcDbMLeaderStyle
  3
ACDB_MLEADERSTYLE_CLASS
 90
     4095
280
     0
281
     0
  0
CLASS
  1
SUN
  2
AcDbSun
  3
SCENEOE
 90
     1153
280
     0
281
     0
  0
CLASS
  1
ACDBPLACEHOLDER
  2
AcDbPlaceHolder
  3
ObjectDBX Classes
 90
        0
280
     0
281
     0
  0
CLASS
  1
LAYOUT
  2
AcDbLayout
  3
ObjectDBX Classes
 90
        0
280
     0
281
     0
  0
ENDSEC
  0
SECTION
  2
TABLES
  0
TABLE
  2
VPORT
  5
8
330
0
100
AcDbSymbolTable
 70
     1
  0
VPORT
  5
29
330
8
100
AcDbSymbolTableRecord
100
AcDbViewportTableRecord
  2
*Active
 70
     0
 10
0.0
 20
0.0
 11
1.0
 21
1.0
 12
139.7
 22
107.95
 13
0.0
 23
0.0
 14
10.0
 24
10.0
 15
10.0
 25
10.0
 16
0.0
 26
0.0
 36
1.0
 17
0.0
 27
0.0
 37
0.0
 40
215.9
 41
1.2941176471
 42
50.0
 43
0.0
 44
0.0
 50
0.0
 51
0.0
 71
     0
 72
  2000
 73
     1
 74
     3
 75
     0
 76
     0
 77
     0
 78
     0
281
     0
 65
     1
110
0.0
120
0.0
130
0.0
111
1.0
121
0.0
131
0.0
112
0.0
122
1.0
132
0.0
 79
     0
146
0.0
  0
ENDTAB
  0
TABLE
  2
LTYPE
  5
5
330
0
100
AcDbSymbolTable
 70
     6
  0
LTYPE
  5
14
330
5
100
AcDbSymbolTableRecord
100
AcDbLinetypeTableRecord
  2
ByBlock
 70
     0
  3

 72
    65
 73
     0
 40
0.0
  0
LTYPE
  5
15
330
5
100
AcDbSymbolTableRecord
100
AcDbLinetypeTableRecord
  2
ByLayer
 70
     0
  3

 72
    65
 73
     0
 40
0.0
  0
LTYPE
  5
16
330
5
100
AcDbSymbolTableRecord
100
AcDbLinetypeTableRecord
  2
Continuous
 70
     0
  3
Solid line
 72
    65
 73
     0
 40
0.0
  0
LTYPE
  5
6E
330
5
100
AcDbSymbolTableRecord
100
AcDbLinetypeTableRecord
  2
HIDDEN
 70
     0
  3
Hidden __ __ __ __ __ __ __ __ __ __ __ __ __ __
 72
    65
 73
     2
 40
1.905
 49
1.27
 74
     0
 49
-0.635
 74
     0
  0
LTYPE
  5
6F
330
5
100
AcDbSymbolTableRecord
100
AcDbLinetypeTableRecord
  2
PHANTOM
 70
     0
  3
Phantom ______  __  __  ______  __  __  ______
 72
    65
 73
     6
 40
12.7
 49
6.35
 74
     0
 49
-1.27
 74
     0
 49
1.27
 74
     0
 49
-1.27
 74
     0
 49
1.27
 74
     0
 49
-1.27
 74
     0
  0
LTYPE
  5
70
330
5
100
AcDbSymbolTableRecord
100
AcDbLinetypeTableRecord
  2
CENTER
 70
     0
  3
Center ____ _ ____ _ ____ _ ____ _ ____ _ ____
 72
    65
 73
     4
 40
10.16
 49
6.35
 74
     0
 49
-1.27
 74
     0
 49
1.27
 74
     0
 49
-1.27
 74
     0
  0
LTYPE
  5
71
330
5
100
AcDbSymbolTableRecord
100
AcDbLinetypeTableRecord
  2
CENTERX2
 70
     0
  3
Center (2x) ________  __  ________  __  _____
 72
    65
 73
     4
 40
20.32
 49
12.7
 74
     0
 49
-2.54
 74
     0
 49
2.54
 74
     0
 49
-2.54
 74
     0
  0
LTYPE
  5
72
330
5
100
AcDbSymbolTableRecord
100
AcDbLinetypeTableRecord
  2
DOT2
 70
     0
  3
Dot (.5x) ........................................
 72
    65
 73
     2
 40
0.635
 49
0.0
 74
     0
 49
-0.635
 74
     0
  0
ENDTAB
  0
TABLE
  2
LAYER
  5
2
330
0
100
AcDbSymbolTable
 70
    17
  0
LAYER
  5
10
330
2
100
AcDbSymbolTableRecord
100
AcDbLayerTableRecord
  2
0
 70
     0
 62
     7
  6
Continuous
370
    -3
390
F
  0
LAYER
  5
73
330
2
100
AcDbSymbolTableRecord
100
AcDbLayerTableRecord
  2
FORMAT
 70
     0
 62
     7
  6
Continuous
370
    -3
390
F
  0
LAYER
  5
74
330
2
100
AcDbSymbolTableRecord
100
AcDbLayerTableRecord
  2
YARDIMCI_GEOMETRI
 70
     0
 62
    -6
  6
Continuous
290
     0
370
    -3
390
F
  0
LAYER
  5
75
330
2
100
AcDbSymbolTableRecord
100
AcDbLayerTableRecord
  2
SAYFA_CERCEVESI
 70
     0
 62
     7
  6
Continuous
370
    25
390
F
  0
LAYER
  5
76
330
2
100
AcDbSymbolTableRecord
100
AcDbLayerTableRecord
  2
ANTET
 70
     0
 62
     7
  6
Continuous
370
    -3
390
F
  0
LAYER
  5
77
330
2
100
AcDbSymbolTableRecord
100
AcDbLayerTableRecord
  2
OLCU
 70
     0
 62
   150
  6
Continuous
370
    -3
390
F
  0
LAYER
  5
78
330
2
100
AcDbSymbolTableRecord
100
AcDbLayerTableRecord
  2
METIN
 70
     0
 62
    96
  6
Continuous
370
    -3
390
F
  0
LAYER
  5
79
330
2
100
AcDbSymbolTableRecord
100
AcDbLayerTableRecord
  2
BALON
 70
     0
 62
     5
  6
Continuous
370
    -3
390
F
  0
LAYER
  5
7A
330
2
100
AcDbSymbolTableRecord
100
AcDbLayerTableRecord
  2
VURGU
 70
     0
 62
     7
  6
Continuous
370
    -3
390
F
  0
LAYER
  5
7B
330
2
100
AcDbSymbolTableRecord
100
AcDbLayerTableRecord
  2
SILIK
 70
     0
 62
     7
  6
Continuous
370
    -3
390
F
  0
LAYER
  5
7C
330
2
100
AcDbSymbolTableRecord
100
AcDbLayerTableRecord
  2
MODEL
 70
     0
 62
     7
  6
Continuous
370
    -3
390
F
  0
LAYER
  5
7D
330
2
100
AcDbSymbolTableRecord
100
AcDbLayerTableRecord
  2
DETAYLANDıRMA
 70
     0
 62
   190
  6
Continuous
370
    -3
390
F
  0
LAYER
  5
7E
330
2
100
AcDbSymbolTableRecord
100
AcDbLayerTableRecord
  2
TOLERANS
 70
     0
 62
   230
  6
Continuous
370
    -3
390
F
  0
LAYER
  5
7F
330
2
100
AcDbSymbolTableRecord
100
AcDbLayerTableRecord
  2
MERKEZ_CIZGILERI
 70
     0
 62
    30
  6
Continuous
370
    -3
390
F
  0
LAYER
  5
80
330
2
100
AcDbSymbolTableRecord
100
AcDbLayerTableRecord
  2
KESIT-DETAY_CIZGILERI
 70
     0
 62
     7
  6
Continuous
370
    -3
390
F
  0
LAYER
  5
81
330
2
100
AcDbSymbolTableRecord
100
AcDbLayerTableRecord
  2
\U+041E\U+0421\U+0415\U+0412\U+042B\U+0415
 70
     0
 62
     7
  6
Continuous
370
    -3
390
F
  0
LAYER
  5
82
330
2
100
AcDbSymbolTableRecord
100
AcDbLayerTableRecord
  2
\U+0412\U+041E\U+0414\U+042F\U+041D\U+042B\U+0415_\U+0417\U+041D\U+0410\U+041A\U+0418
 70
     0
 62
    11
  6
Continuous
370
    -3
390
F
  0
ENDTAB
  0
TABLE
  2
STYLE
  5
3
330
0
100
AcDbSymbolTable
 70
     1
  0
STYLE
  5
11
330
3
100
AcDbSymbolTableRecord
100
AcDbTextStyleTableRecord
  2
Standard
 70
     0
 40
0.0
 41
1.0
 50
0.0
 71
     0
 42
3.5
  3
txt
  4

  0
ENDTAB
  0
TABLE
  2
VIEW
  5
6
330
0
100
AcDbSymbolTable
 70
     0
  0
ENDTAB
  0
TABLE
  2
UCS
  5
7
330
0
100
AcDbSymbolTable
 70
     0
  0
ENDTAB
  0
TABLE
  2
APPID
  5
9
330
0
100
AcDbSymbolTable
 70
     1
  0
APPID
  5
12
330
9
100
AcDbSymbolTableRecord
100
AcDbRegAppTableRecord
  2
ACAD
 70
     0
  0
ENDTAB
  0
TABLE
  2
DIMSTYLE
  5
A
330
0
100
AcDbSymbolTable
 70
     1
100
AcDbDimStyleTable
  0
DIMSTYLE
105
27
330
A
100
AcDbSymbolTableRecord
100
AcDbDimStyleTableRecord
  2
ISO-25
 70
     0
 41
2.5
 42
0.625
 43
3.75
 44
1.25
 73
     0
 74
     0
 77
     1
 78
     8
140
2.5
141
2.5
143
0.0393700787
147
0.625
171
     3
172
     1
178
     0
271
     2
272
     2
274
     3
278
    44
283
     0
284
     8
340
11
  0
ENDTAB
  0
TABLE
  2
BLOCK_RECORD
  5
1
330
0
100
AcDbSymbolTable
 70
     3
  0
BLOCK_RECORD
  5
1F
330
1
100
AcDbSymbolTableRecord
100
AcDbBlockTableRecord
  2
*Model_Space
340
22
  0
BLOCK_RECORD
  5
1B
330
1
100
AcDbSymbolTableRecord
100
AcDbBlockTableRecord
  2
*Paper_Space
340
1E
  0
BLOCK_RECORD
  5
23
330
1
100
AcDbSymbolTableRecord
100
AcDbBlockTableRecord
  2
*Paper_Space0
340
26
  0
BLOCK_RECORD
  5
AF
330
1
100
AcDbSymbolTableRecord
100
AcDbBlockTableRecord
  2
SW_CENTERMARKSYMBOL_0
340
0
102
{BLKREFS
331
BA
102
}
  0
BLOCK_RECORD
  5
C3
330
1
100
AcDbSymbolTableRecord
100
AcDbBlockTableRecord
  2
SW_CENTERMARKSYMBOL_1
340
0
102
{BLKREFS
331
CE
102
}
  0
ENDTAB
  0
ENDSEC
  0
SECTION
  2
BLOCKS
  0
BLOCK
  5
20
330
1F
100
AcDbEntity
  8
0
100
AcDbBlockBegin
  2
*Model_Space
 70
     0
 10
0.0
 20
0.0
 30
0.0
  3
*Model_Space
  1

  0
ENDBLK
  5
21
330
1F
100
AcDbEntity
  8
0
100
AcDbBlockEnd
  0
BLOCK
  5
1C
330
1B
100
AcDbEntity
 67
     1
  8
0
100
AcDbBlockBegin
  2
*Paper_Space
 70
     0
 10
0.0
 20
0.0
 30
0.0
  3
*Paper_Space
  1

  0
ENDBLK
  5
1D
330
1B
100
AcDbEntity
 67
     1
  8
0
100
AcDbBlockEnd
  0
BLOCK
  5
24
330
23
100
AcDbEntity
  8
0
100
AcDbBlockBegin
  2
*Paper_Space0
 70
     0
 10
0.0
 20
0.0
 30
0.0
  3
*Paper_Space0
  1

  0
ENDBLK
  5
25
330
23
100
AcDbEntity
  8
0
100
AcDbBlockEnd
  0
BLOCK
  5
B0
330
AF
100
AcDbEntity
  8
0
100
AcDbBlockBegin
  2
SW_CENTERMARKSYMBOL_0
 70
     0
 10
0.0
 20
0.0
 30
0.0
  3
SW_CENTERMARKSYMBOL_0
  1

  0
LINE
  5
B2
330
AF
100
AcDbEntity
  8
FORMAT
 62
     0
100
AcDbLine
 10
0.0
 20
0.0
 30
0.0
 11
0.0
 21
2.5
 31
0.0
  0
LINE
  5
B3
330
AF
100
AcDbEntity
  8
FORMAT
 62
     0
100
AcDbLine
 10
0.0
 20
0.0
 30
0.0
 11
-2.5
 21
0.0
 31
0.0
  0
LINE
  5
B4
330
AF
100
AcDbEntity
  8
FORMAT
 62
     0
100
AcDbLine
 10
0.0
 20
0.0
 30
0.0
 11
0.0
 21
-2.5
 31
0.0
  0
LINE
  5
B5
330
AF
100
AcDbEntity
  8
FORMAT
 62
     0
100
AcDbLine
 10
0.0
 20
0.0
 30
0.0
 11
2.5
 21
0.0
 31
0.0
  0
LINE
  5
B6
330
AF
100
AcDbEntity
  8
FORMAT
 62
     0
100
AcDbLine
 10
0.0
 20
5.0
 30
0.0
 11
0.0
 21
72.5
 31
0.0
  0
LINE
  5
B7
330
AF
100
AcDbEntity
  8
FORMAT
 62
     0
100
AcDbLine
 10
-5.0
 20
0.0
 30
0.0
 11
-72.5
 21
0.0
 31
0.0
  0
LINE
  5
B8
330
AF
100
AcDbEntity
  8
FORMAT
 62
     0
100
AcDbLine
 10
0.0
 20
-5.0
 30
0.0
 11
0.0
 21
-72.5
 31
0.0
  0
LINE
  5
B9
330
AF
100
AcDbEntity
  8
FORMAT
 62
     0
100
AcDbLine
 10
5.0
 20
0.0
 30
0.0
 11
72.5
 21
0.0
 31
0.0
  0
ENDBLK
  5
B1
330
AF
100
AcDbEntity
  8
0
100
AcDbBlockEnd
  0
BLOCK
  5
C4
330
C3
100
AcDbEntity
  8
0
100
AcDbBlockBegin
  2
SW_CENTERMARKSYMBOL_1
 70
     0
 10
0.0
 20
0.0
 30
0.0
  3
SW_CENTERMARKSYMBOL_1
  1

  0
LINE
  5
C6
330
C3
100
AcDbEntity
  8
FORMAT
 62
     0
100
AcDbLine
 10
0.0
 20
0.0
 30
0.0
 11
0.0
 21
2.5
 31
0.0
  0
LINE
  5
C7
330
C3
100
AcDbEntity
  8
FORMAT
 62
     0
100
AcDbLine
 10
0.0
 20
0.0
 30
0.0
 11
-2.5
 21
0.0
 31
0.0
  0
LINE
  5
C8
330
C3
100
AcDbEntity
  8
FORMAT
 62
     0
100
AcDbLine
 10
0.0
 20
0.0
 30
0.0
 11
0.0
 21
-2.5
 31
0.0
  0
LINE
  5
C9
330
C3
100
AcDbEntity
  8
FORMAT
 62
     0
100
AcDbLine
 10
0.0
 20
0.0
 30
0.0
 11
2.5
 21
0.0
 31
0.0
  0
LINE
  5
CA
330
C3
100
AcDbEntity
  8
FORMAT
 62
     0
100
AcDbLine
 10
0.0
 20
5.0
 30
0.0
 11
0.0
 21
72.5
 31
0.0
  0
LINE
  5
CB
330
C3
100
AcDbEntity
  8
FORMAT
 62
     0
100
AcDbLine
 10
-5.0
 20
0.0
 30
0.0
 11
-72.5
 21
0.0
 31
0.0
  0
LINE
  5
CC
330
C3
100
AcDbEntity
  8
FORMAT
 62
     0
100
AcDbLine
 10
0.0
 20
-5.0
 30
0.0
 11
0.0
 21
-72.5
 31
0.0
  0
LINE
  5
CD
330
C3
100
AcDbEntity
  8
FORMAT
 62
     0
100
AcDbLine
 10
5.0
 20
0.0
 30
0.0
 11
72.5
 21
0.0
 31
0.0
  0
ENDBLK
  5
C5
330
C3
100
AcDbEntity
  8
0
100
AcDbBlockEnd
  0
ENDSEC
  0
SECTION
  2
ENTITIES
  0
LINE
  5
83
330
1F
100
AcDbEntity
  8
0
  6
Continuous
 62
     7
370
    25
100
AcDbLine
 10
51.878431631
 20
105.7977787313
 30
0.0
 11
51.878431631
 21
-10.2072694245
 31
0.0
  0
LINE
  5
84
330
1F
100
AcDbEntity
  8
0
  6
Continuous
 62
     7
370
    25
100
AcDbLine
 10
191.878432227
 20
-10.2072694245
 30
0.0
 11
191.878432227
 21
105.7977787313
 31
0.0
  0
ARC
  5
85
330
1F
100
AcDbEntity
  8
0
  6
Continuous
 62
     7
370
    25
100
AcDbCircle
 10
191.878431929
 20
105.7977812094
 30
0.0
 40
140.0000000000001
100
AcDbArc
 50
135.0
 51
180.0
  0
LINE
  5
86
330
1F
100
AcDbEntity
  8
0
  6
Continuous
 62
     7
370
    25
100
AcDbLine
 10
177.3809583911
 20
289.2902157363
 30
0.0
 11
92.8834823944
 21
204.7927341518
 31
0.0
  0
LINE
  5
87
330
1F
100
AcDbEntity
  8
0
  6
Continuous
 62
     7
370
    25
100
AcDbLine
 10
191.878432227
 20
105.7977787313
 30
0.0
 11
276.375906361
 21
190.2952603158
 31
0.0
  0
LINE
  5
88
330
1F
100
AcDbEntity
  8
0
  6
Continuous
 62
     7
370
    25
100
AcDbLine
 10
121.878431929
 20
-10.2072694245
 30
0.0
 11
191.878432227
 21
-10.2072694245
 31
0.0
  0
LINE
  5
89
330
1F
100
AcDbEntity
  8
0
  6
Continuous
 62
     7
370
    25
100
AcDbLine
 10
51.878431631
 20
-10.2072694245
 30
0.0
 11
121.878431929
 21
-10.2072694245
 31
0.0
  0
LWPOLYLINE
  5
8A
330
1F
100
AcDbEntity
  8
0
  6
Continuous
 62
     7
370
    25
100
AcDbPolyline
 90
       26
 70
   128
 43
0.0
 10
226.8784286507
 20
239.7927305755
 10
229.9864010938
 20
236.684765583
 10
233.0821098813
 20
233.5890493449
 10
236.1533360609
 20
230.5178306159
 10
239.1879500874
 20
227.4832091388
 10
242.173993779
 20
224.4971654472
 10
245.0996654161
 20
221.5715012607
 10
247.9534314998
 20
218.717735177
 10
250.7240193018
 20
215.947147375
 10
253.4005062708
 20
213.270660406
 10
255.9723125824
 20
210.6988391933
 10
258.429305447
 20
208.2418463287
 10
260.7617842086
 20
205.9093824681
 10
262.9605399498
 20
203.710626727
 10
265.0168852933
 20
201.6542664823
 10
266.9227289089
 20
199.7484377679
 10
268.6705308088
 20
198.000635868
 10
270.2534066566
 20
196.4177600202
 10
271.6650830635
 20
195.0060836133
 10
272.9000167974
 20
193.7711498794
 10
273.9533351787
 20
192.7178314981
 10
274.8208509811
 20
191.8503156957
 10
275.4991667398
 20
191.1719850358
 10
275.9856002458
 20
190.6855515298
 10
276.2782292493
 20
190.3929225263
 10
276.375906361
 20
190.2952603158
  0
LWPOLYLINE
  5
8B
330
1F
100
AcDbEntity
  8
0
  6
Continuous
 62
     7
370
    25
100
AcDbPolyline
 90
       26
 70
   128
 43
0.0
 10
177.3809583911
 20
289.2902157363
 10
177.4786280521
 20
289.1925237235
 10
177.7712607809
 20
288.89989472
 10
178.2576942869
 20
288.413461214
 10
178.9360100456
 20
287.7351603564
 10
179.8035370239
 20
286.8676147517
 10
180.8568442293
 20
285.8143112716
 10
182.0917779633
 20
284.5793924388
 10
183.503465546
 20
283.1676862296
 10
185.0863339432
 20
281.584825283
 10
186.8341358431
 20
279.8370382842
 10
188.7399720081
 20
277.9311797675
 10
190.7963248023
 20
275.8748493251
 10
192.9950805434
 20
273.676093584
 10
195.3275518545
 20
271.3436148223
 10
197.7845447191
 20
268.8866219577
 10
200.3563584813
 20
266.3148007449
 10
203.0328379997
 20
263.6383137759
 10
205.8034332522
 20
260.8677408752
 10
208.6571993359
 20
258.0139598903
 10
211.582870973
 20
255.0882957038
 10
214.568907214
 20
252.1022520122
 10
217.6035286912
 20
249.067630535
 10
220.6747548708
 20
245.996411806
 10
223.7704562076
 20
242.900695568
 10
226.8784286507
 20
239.7927305755
  0
LINE
  5
8C
330
1F
100
AcDbEntity
  8
0
  6
Continuous
 62
     1
370
    25
100
AcDbLine
 10
51.878431631
 20
105.7977787313
 30
0.0
 11
191.878432227
 21
105.7977787313
 31
0.0
  0
LWPOLYLINE
  5
8D
330
1F
100
AcDbEntity
  8
0
  6
Continuous
 62
     1
370
    25
100
AcDbPolyline
 90
       51
 70
   128
 43
0.0
 10
92.8834823944
 20
204.7927341518
 10
92.9811539181
 20
204.6950570401
 10
93.2737847843
 20
204.4024280366
 10
93.7602182903
 20
203.9159945306
 10
94.4385359117
 20
203.2376787719
 10
95.3060610273
 20
202.3701480683
 10
96.3593700954
 20
201.3168445882
 10
97.5943038293
 20
200.0819108543
 10
99.0059895494
 20
198.6702195462
 10
100.5888579466
 20
197.0873585996
 10
102.3366598465
 20
195.3395566997
 10
104.2424978741
 20
193.4337130841
 10
106.2988506683
 20
191.3773677405
 10
108.4976045468
 20
189.1786119994
 10
110.8300795832
 20
186.8461332378
 10
113.2870715164
 20
184.3891403731
 10
115.8588838816
 20
181.8173340615
 10
118.5353668925
 20
179.1408470925
 10
121.3059575466
 20
176.3702592906
 10
124.1597214767
 20
173.5164932069
 10
127.0853963733
 20
170.5908141193
 10
130.071435874
 20
167.6047704276
 10
133.1060554885
 20
164.5701638517
 10
136.1772788741
 20
161.4989302215
 10
139.2729857989
 20
158.4032288846
 10
142.3809563794
 20
155.2952489909
 10
145.4889288225
 20
152.1872839984
 10
148.5846357473
 20
149.0915826615
 10
151.6558582016
 20
146.0203490314
 10
154.6904796787
 20
142.9857275542
 10
157.6765196451
 20
139.9996987638
 10
160.6021912821
 20
137.0740196761
 10
163.4559573659
 20
134.2202535924
 10
166.2265488931
 20
131.4496657905
 10
168.9030321368
 20
128.7731788215
 10
171.4748421737
 20
126.2013725099
 10
173.9318350383
 20
123.7443796453
 10
176.2643100747
 20
121.4119008836
 10
178.4630620905
 20
119.2131451425
 10
180.51941861
 20
117.1567997989
 10
182.4252547749
 20
115.2509561834
 10
184.1730566748
 20
113.5031542834
 10
185.7559250721
 20
111.9202858862
 10
187.1676089295
 20
110.5086020288
 10
188.4025426634
 20
109.2736682948
 10
189.4558535942
 20
108.2203573641
 10
190.3233768471
 20
107.3528341111
 10
191.0016926058
 20
106.6745183524
 10
191.4881261118
 20
106.1880848464
 10
191.780762566
 20
105.8954558429
 10
191.878432227
 20
105.7977787313
  0
LINE
  5
8E
330
1F
100
AcDbEntity
  8
0
  6
Continuous
 62
     7
370
    25
100
AcDbLine
 10
-207.2151213041
 20
239.7927305755
 30
0.0
 11
-207.2151213041
 21
155.2952489909
 31
0.0
  0
LINE
  5
8F
330
1F
100
AcDbEntity
  8
0
  6
Continuous
 62
     7
370
    25
100
AcDbLine
 10
-67.2151207081
 20
155.2952489909
 30
0.0
 11
-67.2151207081
 21
239.7927305755
 31
0.0
  0
LINE
  5
90
330
1F
100
AcDbEntity
  8
0
  6
Continuous
 62
     7
370
    25
100
AcDbLine
 10
-207.2151213041
 20
155.2952489909
 30
0.0
 11
-207.2151213041
 21
105.7977787313
 31
0.0
  0
LINE
  5
91
330
1F
100
AcDbEntity
  8
0
  6
Continuous
 62
     7
370
    25
100
AcDbLine
 10
-67.2151207081
 20
105.7977787313
 30
0.0
 11
-67.2151207081
 21
155.2952489909
 31
0.0
  0
LINE
  5
92
330
1F
100
AcDbEntity
  8
0
  6
Continuous
 62
     7
370
    25
100
AcDbLine
 10
-207.2151213041
 20
105.7977787313
 30
0.0
 11
-207.2151213041
 21
-10.2072694245
 31
0.0
  0
LINE
  5
93
330
1F
100
AcDbEntity
  8
0
  6
Continuous
 62
     7
370
    25
100
AcDbLine
 10
-67.2151207081
 20
-10.2072694245
 30
0.0
 11
-67.2151207081
 21
105.7977787313
 31
0.0
  0
LWPOLYLINE
  5
94
330
1F
100
AcDbEntity
  8
0
  6
Continuous
 62
     7
370
    25
100
AcDbPolyline
 90
      101
 70
   128
 43
0.0
 10
-207.2151213041
 20
239.7927305755
 10
-207.0769949905
 20
236.684765583
 10
-206.6631524912
 20
233.5890493449
 10
-205.9752254835
 20
230.5178306159
 10
-205.0159408799
 20
227.4832091388
 10
-203.7890761248
 20
224.4971654472
 10
-202.2994740955
 20
221.5715012607
 10
-200.5530133
 20
218.717735177
 10
-198.5565892509
 20
215.947147375
 10
-196.3180772117
 20
213.270660406
 10
-193.8463098458
 20
210.6988391933
 10
-191.1510474137
 20
208.2418463287
 10
-188.2429256192
 20
205.9093824681
 10
-185.1334183565
 20
203.710626727
 10
-181.8348004571
 20
201.6542664823
 10
-178.3600880853
 20
199.7484377679
 10
-174.7229977599
 20
198.000635868
 10
-170.9378792993
 20
196.4177600202
 10
-167.0196711174
 20
195.0060836133
 10
-162.9838406197
 20
193.7711498794
 10
-158.8463096968
 20
192.7178314981
 10
-154.6234137467
 20
191.8503156957
 10
-150.331813199
 20
191.1719850358
 10
-145.9884469486
 20
190.6855515298
 10
-141.6104573845
 20
190.3929225263
 10
-137.2151210061
 20
190.2952603158
 10
-132.8197846278
 20
190.3929225263
 10
-128.4417950637
 20
190.6855515298
 10
-124.0984288133
 20
191.1719850358
 10
-119.8068282655
 20
191.8503156957
 10
-115.5839323155
 20
192.7178314981
 10
-111.4464013926
 20
193.7711498794
 10
-107.4105708948
 20
195.0060836133
 10
-103.492362713
 20
196.4177600202
 10
-99.7072442523
 20
198.000635868
 10
-96.070153927
 20
199.7484377679
 10
-92.5954415551
 20
201.6542664823
 10
-89.2968236557
 20
203.710626727
 10
-86.187316393
 20
205.9093824681
 10
-83.2791945985
 20
208.2418463287
 10
-80.5839321664
 20
210.6988391933
 10
-78.1121648005
 20
213.270660406
 10
-75.8736527613
 20
215.947147375
 10
-73.8772287122
 20
218.717735177
 10
-72.1307679168
 20
221.5715012607
 10
-70.6411658875
 20
224.4971654472
 10
-69.4143011323
 20
227.4832091388
 10
-68.4550165287
 20
230.5178306159
 10
-67.767089521
 20
233.5890493449
 10
-67.3532470218
 20
236.684765583
 10
-67.2151207081
 20
239.7927305755
 10
-67.3532470218
 20
242.900695568
 10
-67.767089521
 20
245.996411806
 10
-68.4550165287
 20
249.067630535
 10
-69.4143011323
 20
252.1022520122
 10
-70.6411658875
 20
255.0882957038
 10
-72.1307679168
 20
258.0139598903
 10
-73.8772287122
 20
260.8677408752
 10
-75.8736527613
 20
263.6383137759
 10
-78.1121648005
 20
266.3148007449
 10
-80.5839321664
 20
268.8866219577
 10
-83.2791945985
 20
271.3436148223
 10
-86.187316393
 20
273.676093584
 10
-89.2968236557
 20
275.8748493251
 10
-92.5954415551
 20
277.9311797675
 10
-96.070153927
 20
279.8370382842
 10
-99.7072442523
 20
281.584825283
 10
-103.492362713
 20
283.1676862296
 10
-107.4105708948
 20
284.5793924388
 10
-111.4464013926
 20
285.8143112716
 10
-115.5839323155
 20
286.8676147517
 10
-119.8068282655
 20
287.7351603564
 10
-124.0984288133
 20
288.413461214
 10
-128.4417950637
 20
288.89989472
 10
-132.8197846278
 20
289.1925237235
 10
-137.2151210061
 20
289.2902157363
 10
-141.6104573845
 20
289.1925237235
 10
-145.9884469486
 20
288.89989472
 10
-150.331813199
 20
288.413461214
 10
-154.6234137467
 20
287.7351603564
 10
-158.8463096968
 20
286.8676147517
 10
-162.9838406197
 20
285.8143112716
 10
-167.0196711174
 20
284.5793924388
 10
-170.9378792993
 20
283.1676862296
 10
-174.7229977599
 20
281.584825283
 10
-178.3600880853
 20
279.8370382842
 10
-181.8348004571
 20
277.9311797675
 10
-185.1334183565
 20
275.8748493251
 10
-188.2429256192
 20
273.676093584
 10
-191.1510474137
 20
271.3436148223
 10
-193.8463098458
 20
268.8866219577
 10
-196.3180772117
 20
266.3148007449
 10
-198.5565892509
 20
263.6383137759
 10
-200.5530133
 20
260.8677408752
 10
-202.2994740955
 20
258.0139598903
 10
-203.7890761248
 20
255.0882957038
 10
-205.0159408799
 20
252.1022520122
 10
-205.9752254835
 20
249.067630535
 10
-206.6631524912
 20
245.996411806
 10
-207.0769949905
 20
242.900695568
 10
-207.2151213041
 20
239.7927305755
  0
LWPOLYLINE
  5
95
330
1F
100
AcDbEntity
  8
0
  6
Continuous
 62
     7
370
    25
100
AcDbPolyline
 90
       92
 70
   128
 43
0.0
 10
-194.5151223889
 20
239.7927305755
 10
-194.3785904995
 20
242.5880692062
 10
-193.9696504823
 20
245.3700563964
 10
-193.2902506641
 20
248.1254897174
 10
-192.3436245969
 20
250.841226345
 10
-191.1342873326
 20
253.5042724666
 10
-189.66799817
 20
256.1020216998
 10
-187.9517494789
 20
258.622016674
 10
-185.9937182716
 20
261.0523066577
 10
-183.8032364002
 20
263.3812687453
 10
-181.3907384029
 20
265.5978164729
 10
-178.7677242509
 20
267.6913998183
 10
-175.946692293
 20
269.6520350036
 10
-172.941087102
 20
271.4703640994
 10
-169.7652324191
 20
273.1377444324
 10
-166.4342585108
 20
274.6462187823
 10
-162.964044427
 20
275.9886047897
 10
-159.3711248687
 20
277.158494955
 10
-155.6726231328
 20
278.150316244
 10
-151.8861607737
 20
278.9593598899
 10
-148.0297849602
 20
279.5817515906
 10
-144.1218730151
 20
280.0145409164
 10
-140.1810465003
 20
280.2556417045
 10
-136.2260862342
 20
280.3039214667
 10
-132.2758391588
 20
280.1591417846
 10
-128.3491303301
 20
279.8219881114
 10
-124.4646714157
 20
279.294099575
 10
-120.6409747801
 20
278.577949768
 10
-116.896260818
 20
277.6769957599
 10
-113.248376464
 20
276.5954694804
 10
-109.7147039226
 20
275.3385863361
 10
-106.3120833686
 20
273.9123067912
 10
-103.0567309908
 20
272.3234555778
 10
-99.9641551725
 20
270.5795428809
 10
-97.0491006127
 20
268.6889431533
 10
-94.3254551939
 20
266.6606268939
 10
-91.8061978272
 20
264.5042500552
 10
-89.5033351234
 20
262.2301540431
 10
-87.4278417877
 20
259.8490974959
 10
-85.5896047405
 20
257.3724947032
 10
-83.9973895899
 20
254.8120877799
 10
-82.6587773017
 20
252.1801254806
 10
-81.5801530233
 20
249.4891247806
 10
-80.7666576556
 20
246.7519304809
 10
-80.222161775
 20
243.9815661964
 10
-79.9492619089
 20
241.1912343558
 10
-79.9492619089
 20
238.3942267951
 10
-80.222161775
 20
235.6038949546
 10
-80.7666576556
 20
232.8335306701
 10
-81.5801530233
 20
230.0963214692
 10
-82.6587773017
 20
227.4053207692
 10
-83.9973895899
 20
224.7733584699
 10
-85.5896047405
 20
222.2129664477
 10
-87.4278417877
 20
219.7363487538
 10
-89.5033351234
 20
217.3553071078
 10
-91.8061978272
 20
215.0811961946
 10
-94.3254551939
 20
212.9248491582
 10
-97.0491006127
 20
210.8965328988
 10
-99.9641551725
 20
209.00591827
 10
-103.0567309908
 20
207.2620204744
 10
-106.3120833686
 20
205.6731394586
 10
-109.7147039226
 20
204.2468599137
 10
-113.248376464
 20
202.9899767694
 10
-116.896260818
 20
201.9084802922
 10
-120.6409747801
 20
201.0074964818
 10
-124.4646714157
 20
200.291361576
 10
-128.3491303301
 20
199.7634581384
 10
-132.2758391588
 20
199.4263193664
 10
-136.2260862342
 20
199.2815545854
 10
-140.1810465003
 20
199.3298194465
 10
-144.1218730151
 20
199.5709351358
 10
-148.0297849602
 20
200.0037095603
 10
-151.8861607737
 20
200.6261012611
 10
-155.6726231328
 20
201.4351300058
 10
-159.3711248687
 20
202.426966196
 10
-162.964044427
 20
203.5968563613
 10
-166.4342585108
 20
204.9392423686
 10
-169.7652324191
 20
206.4477167186
 10
-172.941087102
 20
208.1150970515
 10
-175.946692293
 20
209.9334261474
 10
-178.7677242509
 20
211.8940613326
 10
-181.3907384029
 20
213.987644678
 10
-183.8032364002
 20
216.2041924056
 10
-185.9937182716
 20
218.5331693944
 10
-187.9517494789
 20
220.963444477
 10
-189.66799817
 20
223.4834394511
 10
-191.1342873326
 20
226.0811737832
 10
-192.3436245969
 20
228.7442497071
 10
-193.2902506641
 20
231.4599565324
 10
-193.9696504823
 20
234.2153898534
 10
-194.3785904995
 20
236.997406846
 10
-194.5151223889
 20
239.7927305755
  0
LINE
  5
96
330
1F
100
AcDbEntity
  8
0
  6
Continuous
 62
     7
370
    25
100
AcDbLine
 10
-207.2151213041
 20
-10.2072694245
 30
0.0
 11
-67.2151207081
 21
-10.2072694245
 31
0.0
  0
LWPOLYLINE
  5
97
330
1F
100
AcDbEntity
  8
0
  6
Continuous
 62
     1
370
    25
100
AcDbPolyline
 90
       26
 70
   128
 43
0.0
 10
-137.2151210061
 20
105.7977787313
 10
-132.8197846278
 20
105.8954558429
 10
-128.4417950637
 20
106.1880848464
 10
-124.0984288133
 20
106.6745183524
 10
-119.8068282655
 20
107.3528341111
 10
-115.5839323155
 20
108.2203573641
 10
-111.4464013926
 20
109.2736682948
 10
-107.4105708948
 20
110.5086020288
 10
-103.492362713
 20
111.9202858862
 10
-99.7072442523
 20
113.5031542834
 10
-96.070153927
 20
115.2509561834
 10
-92.5954415551
 20
117.1567997989
 10
-89.2968236557
 20
119.2131451425
 10
-86.187316393
 20
121.4119008836
 10
-83.2791945985
 20
123.7443796453
 10
-80.5839321664
 20
126.2013725099
 10
-78.1121648005
 20
128.7731788215
 10
-75.8736527613
 20
131.4496657905
 10
-73.8772287122
 20
134.2202535924
 10
-72.1307679168
 20
137.0740196761
 10
-70.6411658875
 20
139.9996987638
 10
-69.4143011323
 20
142.9857275542
 10
-68.4550165287
 20
146.0203490314
 10
-67.767089521
 20
149.0915826615
 10
-67.3532470218
 20
152.1872839984
 10
-67.2151207081
 20
155.2952489909
  0
LWPOLYLINE
  5
98
330
1F
100
AcDbEntity
  8
0
  6
Continuous
 62
     1
370
    25
100
AcDbPolyline
 90
       26
 70
   128
 43
0.0
 10
-207.2151213041
 20
155.2952489909
 10
-207.0769949905
 20
152.1872839984
 10
-206.6631524912
 20
149.0915826615
 10
-205.9752254835
 20
146.0203490314
 10
-205.0159408799
 20
142.9857275542
 10
-203.7890761248
 20
139.9996987638
 10
-202.2994740955
 20
137.0740196761
 10
-200.5530133
 20
134.2202535924
 10
-198.5565892509
 20
131.4496657905
 10
-196.3180772117
 20
128.7731788215
 10
-193.8463098458
 20
126.2013725099
 10
-191.1510474137
 20
123.7443796453
 10
-188.2429256192
 20
121.4119008836
 10
-185.1334183565
 20
119.2131451425
 10
-181.8348004571
 20
117.1567997989
 10
-178.3600880853
 20
115.2509561834
 10
-174.7229977599
 20
113.5031542834
 10
-170.9378792993
 20
111.9202858862
 10
-167.0196711174
 20
110.5086020288
 10
-162.9838406197
 20
109.2736682948
 10
-158.8463096968
 20
108.2203573641
 10
-154.6234137467
 20
107.3528341111
 10
-150.331813199
 20
106.6745183524
 10
-145.9884469486
 20
106.1880848464
 10
-141.6104573845
 20
105.8954558429
 10
-137.2151210061
 20
105.7977787313
  0
LINE
  5
99
330
1F
100
AcDbEntity
  8
0
  6
Continuous
 62
     1
370
    25
100
AcDbLine
 10
-137.2151210061
 20
105.7977787313
 30
0.0
 11
-67.2151207081
 21
105.7977787313
 31
0.0
  0
LINE
  5
9A
330
1F
100
AcDbEntity
  8
0
  6
Continuous
 62
     1
370
    25
100
AcDbLine
 10
-207.2151213041
 20
105.7977787313
 30
0.0
 11
-137.2151210061
 21
105.7977787313
 31
0.0
  0
LINE
  5
9B
330
1F
100
AcDbEntity
  8
0
  6
Continuous
 62
     7
370
    25
100
AcDbLine
 10
360.9896791827
 20
105.7977787313
 30
0.0
 11
360.9896791827
 21
-10.2072694245
 31
0.0
  0
LINE
  5
9C
330
1F
100
AcDbEntity
  8
0
  6
Continuous
 62
     7
370
    25
100
AcDbLine
 10
500.9896797788
 20
-10.2072694245
 30
0.0
 11
500.9896797788
 21
105.7977787313
 31
0.0
  0
LINE
  5
9D
330
1F
100
AcDbEntity
  8
0
  6
Continuous
 62
     7
370
    25
100
AcDbLine
 10
500.9896797788
 20
105.7977787313
 30
0.0
 11
500.9896797788
 21
155.2952489909
 31
0.0
  0
LINE
  5
9E
330
1F
100
AcDbEntity
  8
0
  6
Continuous
 62
     7
370
    25
100
AcDbLine
 10
360.9896791827
 20
155.2952489909
 30
0.0
 11
360.9896791827
 21
105.7977787313
 31
0.0
  0
LINE
  5
9F
330
1F
100
AcDbEntity
  8
0
  6
Continuous
 62
     7
370
    25
100
AcDbLine
 10
360.9896791827
 20
239.7927305755
 30
0.0
 11
360.9896791827
 21
155.2952489909
 31
0.0
  0
LINE
  5
A0
330
1F
100
AcDbEntity
  8
0
  6
Continuous
 62
     7
370
    25
100
AcDbLine
 10
500.9896797788
 20
155.2952489909
 30
0.0
 11
500.9896797788
 21
239.7927305755
 31
0.0
  0
LINE
  5
A1
330
1F
100
AcDbEntity
  8
0
  6
Continuous
 62
     7
370
    25
100
AcDbLine
 10
360.9896791827
 20
-10.2072694245
 30
0.0
 11
500.9896797788
 21
-10.2072694245
 31
0.0
  0
LWPOLYLINE
  5
A2
330
1F
100
AcDbEntity
  8
0
  6
Continuous
 62
     7
370
    25
100
AcDbPolyline
 90
       51
 70
   128
 43
0.0
 10
360.9896791827
 20
239.7927305755
 10
361.1278054964
 20
242.900695568
 10
361.5416479957
 20
245.996411806
 10
362.2295750033
 20
249.067630535
 10
363.1888596069
 20
252.1022520122
 10
364.4157243621
 20
255.0882957038
 10
365.9053263914
 20
258.0139598903
 10
367.6517871868
 20
260.8677408752
 10
369.648211236
 20
263.6383137759
 10
371.8867232751
 20
266.3148007449
 10
374.3584906411
 20
268.8866219577
 10
377.0537530732
 20
271.3436148223
 10
379.9618748676
 20
273.676093584
 10
383.0713821303
 20
275.8748493251
 10
386.3700000298
 20
277.9311797675
 10
389.8447124016
 20
279.8370382842
 10
393.4818027269
 20
281.584825283
 10
397.2669211876
 20
283.1676862296
 10
401.1851293695
 20
284.5793924388
 10
405.2209598672
 20
285.8143112716
 10
409.3584907901
 20
286.8676147517
 10
413.5813867402
 20
287.7351603564
 10
417.8729872879
 20
288.413461214
 10
422.2163535383
 20
288.89989472
 10
426.5943431024
 20
289.1925237235
 10
430.9896794807
 20
289.2902157363
 10
435.3850158591
 20
289.1925237235
 10
439.7630054232
 20
288.89989472
 10
444.1063716736
 20
288.413461214
 10
448.3979722213
 20
287.7351603564
 10
452.6208681714
 20
286.8676147517
 10
456.7583990943
 20
285.8143112716
 10
460.794229592
 20
284.5793924388
 10
464.7124377739
 20
283.1676862296
 10
468.4975562346
 20
281.584825283
 10
472.1346465599
 20
279.8370382842
 10
475.6093589317
 20
277.9311797675
 10
478.9079768312
 20
275.8748493251
 10
482.0174840939
 20
273.676093584
 10
484.9256058883
 20
271.3436148223
 10
487.6208683204
 20
268.8866219577
 10
490.0926356864
 20
266.3148007449
 10
492.3311477255
 20
263.6383137759
 10
494.3275717747
 20
260.8677408752
 10
496.0740325701
 20
258.0139598903
 10
497.5636345994
 20
255.0882957038
 10
498.7904993546
 20
252.1022520122
 10
499.7497839582
 20
249.067630535
 10
500.4377109658
 20
245.996411806
 10
500.8515534651
 20
242.900695568
 10
500.9896797788
 20
239.7927305755
  0
LINE
  5
A3
330
1F
100
AcDbEntity
  8
0
  6
Continuous
 62
     1
370
    25
100
AcDbLine
 10
360.9896791827
 20
105.7977787313
 30
0.0
 11
500.9896797788
 21
105.7977787313
 31
0.0
  0
LWPOLYLINE
  5
A4
330
1F
100
AcDbEntity
  8
0
  6
Continuous
 62
     1
370
    25
100
AcDbPolyline
 90
       51
 70
   128
 43
0.0
 10
360.9896791827
 20
155.2952489909
 10
361.1278054964
 20
158.4032288846
 10
361.5416479957
 20
161.4989302215
 10
362.2295750033
 20
164.5701638517
 10
363.1888596069
 20
167.6047704276
 10
364.4157243621
 20
170.5908141193
 10
365.9053263914
 20
173.5164932069
 10
367.6517871868
 20
176.3702592906
 10
369.648211236
 20
179.1408470925
 10
371.8867232751
 20
181.8173340615
 10
374.3584906411
 20
184.3891403731
 10
377.0537530732
 20
186.8461332378
 10
379.9618748676
 20
189.1786119994
 10
383.0713821303
 20
191.3773677405
 10
386.3700000298
 20
193.4337130841
 10
389.8447124016
 20
195.3395566997
 10
393.4818027269
 20
197.0873585996
 10
397.2669211876
 20
198.6702195462
 10
401.1851293695
 20
200.0819108543
 10
405.2209598672
 20
201.3168445882
 10
409.3584907901
 20
202.3701480683
 10
413.5813867402
 20
203.2376787719
 10
417.8729872879
 20
203.9159945306
 10
422.2163535383
 20
204.4024280366
 10
426.5943431024
 20
204.6950570401
 10
430.9896794807
 20
204.7927341518
 10
435.3850158591
 20
204.6950570401
 10
439.7630054232
 20
204.4024280366
 10
444.1063716736
 20
203.9159945306
 10
448.3979722213
 20
203.2376787719
 10
452.6208681714
 20
202.3701480683
 10
456.7583990943
 20
201.3168445882
 10
460.794229592
 20
200.0819108543
 10
464.7124377739
 20
198.6702195462
 10
468.4975562346
 20
197.0873585996
 10
472.1346465599
 20
195.3395566997
 10
475.6093589317
 20
193.4337130841
 10
478.9079768312
 20
191.3773677405
 10
482.0174840939
 20
189.1786119994
 10
484.9256058883
 20
186.8461332378
 10
487.6208683204
 20
184.3891403731
 10
490.0926356864
 20
181.8173340615
 10
492.3311477255
 20
179.1408470925
 10
494.3275717747
 20
176.3702592906
 10
496.0740325701
 20
173.5164932069
 10
497.5636345994
 20
170.5908141193
 10
498.7904993546
 20
167.6047704276
 10
499.7497839582
 20
164.5701638517
 10
500.4377109658
 20
161.4989302215
 10
500.8515534651
 20
158.4032288846
 10
500.9896797788
 20
155.2952489909
  0
LINE
  5
A5
330
1F
100
AcDbEntity
  8
0
  6
Continuous
 62
     7
370
    25
100
AcDbLine
 10
226.8784286507
 20
506.1649169767
 30
0.0
 11
142.3809563794
 21
506.1649169767
 31
0.0
  0
LINE
  5
A6
330
1F
100
AcDbEntity
  8
0
  6
Continuous
 62
     7
370
    25
100
AcDbLine
 10
142.3809563794
 20
366.1649163807
 30
0.0
 11
226.8784286507
 21
366.1649163807
 31
0.0
  0
LINE
  5
A7
330
1F
100
AcDbEntity
  8
0
  6
Continuous
 62
     7
370
    25
100
AcDbLine
 10
142.3809563794
 20
506.1649169767
 30
0.0
 11
121.878431929
 21
506.1649169767
 31
0.0
  0
LINE
  5
A8
330
1F
100
AcDbEntity
  8
0
  6
Continuous
 62
     7
370
    25
100
AcDbLine
 10
121.878431929
 20
366.1649163807
 30
0.0
 11
142.3809563794
 21
366.1649163807
 31
0.0
  0
CIRCLE
  5
A9
330
1F
100
AcDbEntity
  8
0
  6
Continuous
 62
     7
370
    25
100
AcDbCircle
 10
121.878431929
 20
436.1649166787
 30
0.0
 40
57.30000000000007
  0
CIRCLE
  5
AA
330
1F
100
AcDbEntity
  8
0
  6
Continuous
 62
     7
370
    25
100
AcDbCircle
 10
121.878431929
 20
436.1649166787
 30
0.0
 40
70.00000000000006
  0
LWPOLYLINE
  5
AB
330
1F
100
AcDbEntity
  8
0
  6
Continuous
 62
     7
370
    25
100
AcDbPolyline
 90
       52
 70
   128
 43
0.0
 10
226.8784286507
 20
506.1649169767
 10
229.9864010938
 20
506.026790663
 10
233.0821098813
 20
505.6129481638
 10
236.1533360609
 20
504.9250211561
 10
239.1879500874
 20
503.9657365525
 10
242.173993779
 20
502.7388717974
 10
245.0996654161
 20
501.249269768
 10
247.9534314998
 20
499.5028089726
 10
250.7240193018
 20
497.5063849235
 10
253.4005062708
 20
495.2678728843
 10
255.9723125824
 20
492.7961055184
 10
258.429305447
 20
490.1008430863
 10
260.7617842086
 20
487.1927212918
 10
262.9605399498
 20
484.0832140291
 10
265.0168852933
 20
480.7845961297
 10
266.9227289089
 20
477.3098837579
 10
268.6705308088
 20
473.6727934325
 10
270.2534066566
 20
469.8876749718
 10
271.6650830635
 20
465.96946679
 10
272.9000167974
 20
461.9336362922
 10
273.9533351787
 20
457.7961053694
 10
274.8208509811
 20
453.5732094193
 10
275.4991667398
 20
449.2816088715
 10
275.9856002458
 20
444.9382426212
 10
276.2782292493
 20
440.5602530571
 10
276.375906361
 20
436.1649166787
 10
276.2782292493
 20
431.7695803003
 10
275.9856002458
 20
427.3915907362
 10
275.4991667398
 20
423.0482244858
 10
274.8208509811
 20
418.7566239381
 10
273.9533351787
 20
414.533727988
 10
272.9000167974
 20
410.3961970651
 10
271.6650830635
 20
406.3603665674
 10
270.2534066566
 20
402.4421583855
 10
268.6705308088
 20
398.6570399249
 10
266.9227289089
 20
395.0199495995
 10
265.0168852933
 20
391.5452372277
 10
262.9605399498
 20
388.2466193283
 10
260.7617842086
 20
385.1371120656
 10
258.429305447
 20
382.2289902711
 10
255.9723125824
 20
379.533727839
 10
253.4005062708
 20
377.0619604731
 10
250.7240193018
 20
374.8234484339
 10
247.9534314998
 20
372.8270243848
 10
245.0996654161
 20
371.0805635894
 10
242.173993779
 20
369.59096156
 10
239.1879500874
 20
368.3640968049
 10
236.1533360609
 20
367.4048122013
 10
233.0821098813
 20
366.7168851936
 10
229.9864010938
 20
366.3030426944
 10
226.8784286507
 20
366.1649163807
 10
226.8784286507
 20
366.1649163807
  0
LWPOLYLINE
  5
AC
330
1F
100
AcDbEntity
  8
0
  6
Continuous
 62
     1
370
    25
100
AcDbPolyline
 90
       26
 70
   128
 43
0.0
 10
191.878432227
 20
436.1649166787
 10
191.780762566
 20
431.7695803003
 10
191.4881261118
 20
427.3915907362
 10
191.0016926058
 20
423.0482244858
 10
190.3233768471
 20
418.7566239381
 10
189.4558535942
 20
414.533727988
 10
188.4025426634
 20
410.3961970651
 10
187.1676089295
 20
406.3603665674
 10
185.7559250721
 20
402.4421583855
 10
184.1730566748
 20
398.6570399249
 10
182.4252547749
 20
395.0199495995
 10
180.51941861
 20
391.5452372277
 10
178.4630620905
 20
388.2466193283
 10
176.2643100747
 20
385.1371120656
 10
173.9318350383
 20
382.2289902711
 10
171.4748421737
 20
379.533727839
 10
168.9030321368
 20
377.0619604731
 10
166.2265488931
 20
374.8234484339
 10
163.4559573659
 20
372.8270243848
 10
160.6021912821
 20
371.0805635894
 10
157.6765196451
 20
369.59096156
 10
154.6904796787
 20
368.3640968049
 10
151.6558582016
 20
367.4048122013
 10
148.5846357473
 20
366.7168851936
 10
145.4889288225
 20
366.3030426944
 10
142.3809563794
 20
366.1649163807
  0
LWPOLYLINE
  5
AD
330
1F
100
AcDbEntity
  8
0
  6
Continuous
 62
     1
370
    25
100
AcDbPolyline
 90
       26
 70
   128
 43
0.0
 10
142.3809563794
 20
506.1649169767
 10
145.4889288225
 20
506.026790663
 10
148.5846357473
 20
505.6129481638
 10
151.6558582016
 20
504.9250211561
 10
154.6904796787
 20
503.9657365525
 10
157.6765196451
 20
502.7388717974
 10
160.6021912821
 20
501.249269768
 10
163.4559573659
 20
499.5028089726
 10
166.2265488931
 20
497.5063849235
 10
168.9030321368
 20
495.2678728843
 10
171.4748421737
 20
492.7961055184
 10
173.9318350383
 20
490.1008430863
 10
176.2643100747
 20
487.1927212918
 10
178.4630620905
 20
484.0832140291
 10
180.51941861
 20
480.7845961297
 10
182.4252547749
 20
477.3098837579
 10
184.1730566748
 20
473.6727934325
 10
185.7559250721
 20
469.8876749718
 10
187.1676089295
 20
465.96946679
 10
188.4025426634
 20
461.9336362922
 10
189.4558535942
 20
457.7961053694
 10
190.3233768471
 20
453.5732094193
 10
191.0016926058
 20
449.2816088715
 10
191.4881261118
 20
444.9382426212
 10
191.780762566
 20
440.5602530571
 10
191.878432227
 20
436.1649166787
  0
LWPOLYLINE
  5
AE
330
1F
100
AcDbEntity
  8
0
  6
Continuous
 62
     1
370
    25
100
AcDbPolyline
 90
       41
 70
   128
 43
0.0
 10
133.8885331579
 20
492.192120477
 10
131.3324699231
 20
491.2934202695
 10
128.6694005185
 20
490.0840830052
 10
126.0716731713
 20
488.6177938426
 10
123.5516669049
 20
486.9015451515
 10
121.1213908328
 20
484.9435139442
 10
118.7924263586
 20
482.7530320728
 10
116.5758718789
 20
480.3405340755
 10
114.4822903962
 20
477.7175199235
 10
112.5216584706
 20
474.8964879656
 10
110.7033200615
 20
471.8908827746
 10
109.0359397285
 20
468.7150280917
 10
107.5274644472
 20
465.3840541834
 10
106.1850803026
 20
461.9138400996
 10
105.0151882746
 20
458.3209205413
 10
104.023359535
 20
454.6224188054
 10
103.214321477
 20
450.8359564463
 10
102.5919316389
 20
446.9795806328
 10
102.1591553517
 20
443.0716686876
 10
101.918052701
 20
439.1308421729
 10
101.8697748014
 20
435.1758819068
 10
102.0145507582
 20
431.2256348314
 10
102.3516913929
 20
427.2989260027
 10
102.8795892426
 20
423.4144670883
 10
103.5957297363
 20
419.5907704526
 10
104.4967005082
 20
415.8460564906
 10
105.5782044359
 20
412.1981721366
 10
106.8350922369
 20
408.6644995952
 10
108.2613717818
 20
405.2618790412
 10
109.8502462783
 20
402.0065266633
 10
111.5941450053
 20
398.913950845
 10
113.4847568401
 20
395.9988962853
 10
115.5130717025
 20
393.2752508664
 10
117.6694243268
 20
390.7559934998
 10
119.9435389654
 20
388.453130796
 10
122.3245780793
 20
386.3776374603
 10
124.8011950456
 20
384.5394004131
 10
127.3615875334
 20
382.9471852625
 10
129.9935540237
 20
381.6085729742
 10
132.6845519298
 20
380.5299486959
 10
133.8885331579
 20
380.1377128804
  0
INSERT
  5
BA
330
1F
100
AcDbEntity
  8
FORMAT
 62
     7
100
AcDbBlockReference
  2
SW_CENTERMARKSYMBOL_0
 10
121.878431929
 20
436.1649166787
 30
0.0
  0
LINE
  5
BB
330
1F
100
AcDbEntity
  8
0
  6
Continuous
 62
     7
370
    25
100
AcDbLine
 10
226.8784286507
 20
-125.1567340353
 30
0.0
 11
142.3809563794
 21
-125.1567340353
 31
0.0
  0
LINE
  5
BC
330
1F
100
AcDbEntity
  8
0
  6
Continuous
 62
     7
370
    25
100
AcDbLine
 10
142.3809563794
 20
-265.1567346314
 30
0.0
 11
226.8784286507
 21
-265.1567346314
 31
0.0
  0
LINE
  5
BD
330
1F
100
AcDbEntity
  8
0
  6
Continuous
 62
     7
370
    25
100
AcDbLine
 10
121.878431929
 20
-265.1567346314
 30
0.0
 11
142.3809563794
 21
-265.1567346314
 31
0.0
  0
LINE
  5
BE
330
1F
100
AcDbEntity
  8
0
  6
Continuous
 62
     7
370
    25
100
AcDbLine
 10
142.3809563794
 20
-125.1567340353
 30
0.0
 11
121.878431929
 21
-125.1567340353
 31
0.0
  0
LWPOLYLINE
  5
BF
330
1F
100
AcDbEntity
  8
0
  6
Continuous
 62
     7
370
    25
100
AcDbPolyline
 90
      101
 70
   128
 43
0.0
 10
226.8784286507
 20
-265.1567346314
 10
229.9864010938
 20
-265.0186083177
 10
233.0821098813
 20
-264.6047658184
 10
236.1533360609
 20
-263.9168388108
 10
239.1879500874
 20
-262.9575542072
 10
242.173993779
 20
-261.730689452
 10
245.0996654161
 20
-260.2410874227
 10
247.9534314998
 20
-258.4946266273
 10
250.7240193018
 20
-256.4982025781
 10
253.4005062708
 20
-254.259690539
 10
255.9723125824
 20
-251.787923173
 10
258.429305447
 20
-249.0926607409
 10
260.7617842086
 20
-246.1845389465
 10
262.9605399498
 20
-243.0750316838
 10
265.0168852933
 20
-239.7764137843
 10
266.9227289089
 20
-236.3017014125
 10
268.6705308088
 20
-232.6646110872
 10
270.2534066566
 20
-228.8794926265
 10
271.6650830635
 20
-224.9612844446
 10
272.9000167974
 20
-220.9254539469
 10
273.9533351787
 20
-216.787923024
 10
274.8208509811
 20
-212.5650270739
 10
275.4991667398
 20
-208.2734265262
 10
275.9856002458
 20
-203.9300602758
 10
276.2782292493
 20
-199.5520707117
 10
276.375906361
 20
-195.1567343333
 10
276.2782292493
 20
-190.761397955
 10
275.9856002458
 20
-186.3834083909
 10
275.4991667398
 20
-182.0400421405
 10
274.8208509811
 20
-177.7484415928
 10
273.9533351787
 20
-173.5255456427
 10
272.9000167974
 20
-169.3880147198
 10
271.6650830635
 20
-165.3521842221
 10
270.2534066566
 20
-161.4339760402
 10
268.6705308088
 20
-157.6488575795
 10
266.9227289089
 20
-154.0117672542
 10
265.0168852933
 20
-150.5370548824
 10
262.9605399498
 20
-147.2384369829
 10
260.7617842086
 20
-144.1289297202
 10
258.429305447
 20
-141.2208079258
 10
255.9723125824
 20
-138.5255454937
 10
253.4005062708
 20
-136.0537781277
 10
250.7240193018
 20
-133.8152660886
 10
247.9534314998
 20
-131.8188420394
 10
245.0996654161
 20
-130.072381244
 10
242.173993779
 20
-128.5827792147
 10
239.1879500874
 20
-127.3559144595
 10
236.1533360609
 20
-126.3966298559
 10
233.0821098813
 20
-125.7087028483
 10
229.9864010938
 20
-125.294860349
 10
226.8784286507
 20
-125.1567340353
 10
223.7704562076
 20
-125.294860349
 10
220.6747548708
 20
-125.7087028483
 10
217.6035286912
 20
-126.3966298559
 10
214.568907214
 20
-127.3559144595
 10
211.582870973
 20
-128.5827792147
 10
208.6571993359
 20
-130.072381244
 10
205.8034332522
 20
-131.8188420394
 10
203.0328379997
 20
-133.8152660886
 10
200.3563584813
 20
-136.0537781277
 10
197.7845447191
 20
-138.5255454937
 10
195.3275518545
 20
-141.2208079258
 10
192.9950805434
 20
-144.1289297202
 10
190.7963248023
 20
-147.2384369829
 10
188.7399720081
 20
-150.5370548824
 10
186.8341358431
 20
-154.0117672542
 10
185.0863339432
 20
-157.6488575795
 10
183.503465546
 20
-161.4339760402
 10
182.0917779633
 20
-165.3521842221
 10
180.8568442293
 20
-169.3880147198
 10
179.8035370239
 20
-173.5255456427
 10
178.9360100456
 20
-177.7484415928
 10
178.2576942869
 20
-182.0400421405
 10
177.7712607809
 20
-186.3834083909
 10
177.4786280521
 20
-190.761397955
 10
177.3809583911
 20
-195.1567343333
 10
177.4786280521
 20
-199.5520707117
 10
177.7712607809
 20
-203.9300602758
 10
178.2576942869
 20
-208.2734265262
 10
178.9360100456
 20
-212.5650270739
 10
179.8035370239
 20
-216.787923024
 10
180.8568442293
 20
-220.9254539469
 10
182.0917779633
 20
-224.9612844446
 10
183.503465546
 20
-228.8794926265
 10
185.0863339432
 20
-232.6646110872
 10
186.8341358431
 20
-236.3017014125
 10
188.7399720081
 20
-239.7764137843
 10
190.7963248023
 20
-243.0750316838
 10
192.9950805434
 20
-246.1845389465
 10
195.3275518545
 20
-249.0926607409
 10
197.7845447191
 20
-251.787923173
 10
200.3563584813
 20
-254.259690539
 10
203.0328379997
 20
-256.4982025781
 10
205.8034332522
 20
-258.4946266273
 10
208.6571993359
 20
-260.2410874227
 10
211.582870973
 20
-261.730689452
 10
214.568907214
 20
-262.9575542072
 10
217.6035286912
 20
-263.9168388108
 10
220.6747548708
 20
-264.6047658184
 10
223.7704562076
 20
-265.0186083177
 10
226.8784286507
 20
-265.1567346314
  0
LWPOLYLINE
  5
C0
330
1F
100
AcDbEntity
  8
0
  6
Continuous
 62
     7
370
    25
100
AcDbPolyline
 90
       92
 70
   128
 43
0.0
 10
226.8784286507
 20
-252.4567357162
 10
224.0831049212
 20
-252.3202038267
 10
221.3010953792
 20
-251.9112638095
 10
218.5456620582
 20
-251.2318639913
 10
215.8299477824
 20
-250.2852379242
 10
213.1668718585
 20
-249.0759006599
 10
210.569144977
 20
-247.6096114972
 10
208.0491425522
 20
-245.8933628061
 10
205.6188674697
 20
-243.9353315988
 10
203.2898979314
 20
-241.7448497275
 10
201.0733502039
 20
-239.3323517302
 10
198.9797668584
 20
-236.7093375781
 10
197.0191316732
 20
-233.8883056203
 10
195.2007951268
 20
-230.8827004293
 10
193.5334147938
 20
-227.7068457463
 10
192.0249404439
 20
-224.375871838
 10
190.6825544365
 20
-220.9056577543
 10
189.5126642712
 20
-217.312738196
 10
188.5208355316
 20
-213.61423646
 10
187.7117993363
 20
-209.8277741009
 10
187.0894076356
 20
-205.9713982874
 10
186.656633211
 20
-202.0634863423
 10
186.4155249723
 20
-198.1226598276
 10
186.3672526606
 20
-194.1676995614
 10
186.5120248922
 20
-190.217452486
 10
186.8491636642
 20
-186.2907436574
 10
187.3770671018
 20
-182.406284743
 10
188.0932020076
 20
-178.5825881073
 10
188.9941709169
 20
-174.8378741452
 10
190.0756822952
 20
-171.1899897912
 10
191.3325654396
 20
-167.6563172498
 10
192.7588449844
 20
-164.2536966959
 10
194.3477185496
 20
-160.998344318
 10
196.0916163453
 20
-157.9057684997
 10
197.9822309741
 20
-154.99071394
 10
200.0105472334
 20
-152.2670685211
 10
202.1669017204
 20
-149.7478111544
 10
204.4410126337
 20
-147.4449484506
 10
206.8220542797
 20
-145.3694551149
 10
209.2986719736
 20
-143.5312180677
 10
211.8590639957
 20
-141.9390029171
 10
214.491026295
 20
-140.6003906289
 10
217.182026995
 20
-139.5217663506
 10
219.9192361959
 20
-138.7082709828
 10
222.6896004804
 20
-138.1637751022
 10
225.4799323209
 20
-137.8908752361
 10
228.2769324311
 20
-137.8908752361
 10
231.0672642716
 20
-138.1637751022
 10
233.8376285561
 20
-138.7082709828
 10
236.574837757
 20
-139.5217663506
 10
239.265838457
 20
-140.6003906289
 10
241.8978007563
 20
-141.9390029171
 10
244.4581927785
 20
-143.5312180677
 10
246.9348179229
 20
-145.3694551149
 10
249.3158446678
 20
-147.4449484506
 10
251.5899704822
 20
-149.7478111544
 10
253.7463175186
 20
-152.2670685211
 10
255.774633778
 20
-154.99071394
 10
257.6652484068
 20
-157.9057684997
 10
259.4091462024
 20
-160.998344318
 10
260.998012317
 20
-164.2536966959
 10
262.4242918619
 20
-167.6563172498
 10
263.6811899074
 20
-171.1899897912
 10
264.7626863845
 20
-174.8378741452
 10
265.6636552938
 20
-178.5825881073
 10
266.3798051008
 20
-182.406284743
 10
266.9076936372
 20
-186.2907436574
 10
267.2448324092
 20
-190.217452486
 10
267.3896120914
 20
-194.1676995614
 10
267.3413323291
 20
-198.1226598276
 10
267.100231541
 20
-202.0634863423
 10
266.6674571165
 20
-205.9713982874
 10
266.0450654157
 20
-209.8277741009
 10
265.236036671
 20
-213.61423646
 10
264.2442004808
 20
-217.312738196
 10
263.0743103155
 20
-220.9056577543
 10
261.7319243082
 20
-224.375871838
 10
260.2234499582
 20
-227.7068457463
 10
258.5560696252
 20
-230.8827004293
 10
256.7377256282
 20
-233.8883056203
 10
254.7771053442
 20
-236.7093375781
 10
252.6835219987
 20
-239.3323517302
 10
250.46695937
 20
-241.7448497275
 10
248.1379972824
 20
-243.9353315988
 10
245.7077221998
 20
-245.8933628061
 10
243.1877123245
 20
-247.6096114972
 10
240.589985443
 20
-249.0759006599
 10
237.9269169696
 20
-250.2852379242
 10
235.2112026938
 20
-251.2318639913
 10
232.4557693728
 20
-251.9112638095
 10
229.6737598308
 20
-252.3202038267
 10
226.8784286507
 20
-252.4567357162
  0
ARC
  5
C1
330
1F
100
AcDbEntity
  8
0
  6
Continuous
 62
     7
370
    25
100
AcDbCircle
 10
121.878431929
 20
-195.1567343333
 30
0.0
 40
70.00000000000003
100
AcDbArc
 50
90.0
 51
270.0
  0
LWPOLYLINE
  5
C2
330
1F
100
AcDbEntity
  8
0
  6
Continuous
 62
     1
370
    25
100
AcDbPolyline
 90
       51
 70
   128
 43
0.0
 10
142.3809563794
 20
-125.1567340353
 10
139.2729857989
 20
-125.294860349
 10
136.1772788741
 20
-125.7087028483
 10
133.1060554885
 20
-126.3966298559
 10
130.071435874
 20
-127.3559144595
 10
127.0853963733
 20
-128.5827792147
 10
124.1597214767
 20
-130.072381244
 10
121.3059575466
 20
-131.8188420394
 10
118.5353668925
 20
-133.8152660886
 10
115.8588838816
 20
-136.0537781277
 10
113.2870715164
 20
-138.5255454937
 10
110.8300795832
 20
-141.2208079258
 10
108.4976045468
 20
-144.1289297202
 10
106.2988506683
 20
-147.2384369829
 10
104.2424978741
 20
-150.5370548824
 10
102.3366598465
 20
-154.0117672542
 10
100.5888579466
 20
-157.6488575795
 10
99.0059895494
 20
-161.4339760402
 10
97.5943038293
 20
-165.3521842221
 10
96.3593700954
 20
-169.3880147198
 10
95.3060610273
 20
-173.5255456427
 10
94.4385359117
 20
-177.7484415928
 10
93.7602182903
 20
-182.0400421405
 10
93.2737847843
 20
-186.3834083909
 10
92.9811539181
 20
-190.761397955
 10
92.8834823944
 20
-195.1567343333
 10
92.9811539181
 20
-199.5520707117
 10
93.2737847843
 20
-203.9300602758
 10
93.7602182903
 20
-208.2734265262
 10
94.4385359117
 20
-212.5650270739
 10
95.3060610273
 20
-216.787923024
 10
96.3593700954
 20
-220.9254539469
 10
97.5943038293
 20
-224.9612844446
 10
99.0059895494
 20
-228.8794926265
 10
100.5888579466
 20
-232.6646110872
 10
102.3366598465
 20
-236.3017014125
 10
104.2424978741
 20
-239.7764137843
 10
106.2988506683
 20
-243.0750316838
 10
108.4976045468
 20
-246.1845389465
 10
110.8300795832
 20
-249.0926607409
 10
113.2870715164
 20
-251.787923173
 10
115.8588838816
 20
-254.259690539
 10
118.5353668925
 20
-256.4982025781
 10
121.3059575466
 20
-258.4946266273
 10
124.1597214767
 20
-260.2410874227
 10
127.0853963733
 20
-261.730689452
 10
130.071435874
 20
-262.9575542072
 10
133.1060554885
 20
-263.9168388108
 10
136.1772788741
 20
-264.6047658184
 10
139.2729857989
 20
-265.0186083177
 10
142.3809563794
 20
-265.1567346314
  0
INSERT
  5
CE
330
1F
100
AcDbEntity
  8
FORMAT
 62
     7
100
AcDbBlockReference
  2
SW_CENTERMARKSYMBOL_1
 10
121.878431929
 20
-195.1567343333
 30
0.0
  0
LINE
  5
CF
330
1F
100
AcDbEntity
  8
0
  6
Continuous
 62
     7
370
    25
100
AcDbLine
 10
346.5071292397
 20
-257.7560872672
 30
0.0
 11
346.5071292397
 21
-352.4789434712
 31
0.0
  0
LINE
  5
D0
330
1F
100
AcDbEntity
  8
0
  6
Continuous
 62
     7
370
    25
100
AcDbLine
 10
486.5071272651
 20
-352.4789434712
 30
0.0
 11
486.5071272651
 21
-257.7560872672
 31
0.0
  0
LINE
  5
D1
330
1F
100
AcDbEntity
  8
0
  6
Continuous
 62
     7
370
    25
100
AcDbLine
 10
430.1315632831
 20
-70.4823057699
 30
0.0
 11
370.3828236956
 21
-173.9701611617
 31
0.0
  0
LINE
  5
D2
330
1F
100
AcDbEntity
  8
0
  6
Continuous
 62
     7
370
    25
100
AcDbLine
 10
491.6263809499
 20
-243.970164827
 30
0.0
 11
551.3751179031
 21
-140.4823109559
 31
0.0
  0
SPLINE
  5
D3
330
1F
100
AcDbEntity
  8
0
  6
Continuous
 62
     7
370
    25
100
AcDbSpline
210
0.0
220
0.0
230
1.0
 70
     8
 71
     3
 72
    23
 73
    19
 74
     0
 42
0.000000001
 43
0.00000001
 40
0.0
 40
0.0
 40
0.0
 40
0.0
 40
0.0382275804924723
 40
0.103965122629801
 40
0.1697902972633376
 40
0.2357478463799723
 40
0.3018853016243514
 40
0.3682466997367629
 40
0.4348708373560073
 40
0.5017879133029226
 40
0.569017085739847
 40
0.6365621602384703
 40
0.7044067729032476
 40
0.7725113796410287
 40
0.8408085111662724
 40
0.9091790721875265
 40
0.9774795734411188
 40
1.0
 40
1.0
 40
1.0
 40
1.0
 10
370.3828236956107
 20
-173.9701611616606
 30
0.0
 10
369.8140941186163
 20
-174.9676365254234
 30
0.0
 10
368.2673564110843
 20
-177.6804069173196
 30
0.0
 10
365.8730313163119
 20
-182.1825899202859
 30
0.0
 10
363.2464954702882
 20
-187.4928715110298
 30
0.0
 10
360.7897905925688
 20
-192.8845637628566
 30
0.0
 10
358.5044418476786
 20
-198.3513651506697
 30
0.0
 10
356.3961283578623
 20
-203.8892477817042
 30
0.0
 10
354.4701633662227
 20
-209.4933575350493
 30
0.0
 10
352.7327719335386
 20
-215.1585499396657
 30
0.0
 10
351.1907509148245
 20
-220.8788788013341
 30
0.0
 10
349.8515931001564
 20
-226.6473066912542
 30
0.0
 10
348.7231654622309
 20
-232.4553232530434
 30
0.0
 10
347.813956865326
 20
-238.2924830351906
 30
0.0
 10
347.1314221120958
 20
-244.1456538990969
 30
0.0
 10
346.6864580207102
 20
-249.9982814376672
 30
0.0
 10
346.5212329119632
 20
-254.5348342585184
 30
0.0
 10
346.5099315770594
 20
-257.1160385205537
 30
0.0
 10
346.5071292396594
 20
-257.7560872672111
 30
0.0
  0
SPLINE
  5
D4
330
1F
100
AcDbEntity
  8
0
  6
Continuous
 62
     7
370
    25
100
AcDbSpline
210
0.0
220
0.0
230
1.0
 70
     8
 71
     3
 72
    21
 73
    17
 74
     0
 42
0.000000001
 43
0.00000001
 40
0.0
 40
0.0
 40
0.0
 40
0.0
 40
0.0217379221903949
 40
0.1060071566281384
 40
0.1874690767802401
 40
0.2668956776687476
 40
0.3449809746365281
 40
0.422326491866068
 40
0.4994283228064353
 40
0.5766708130814382
 40
0.6542732172612321
 40
0.7323783985056694
 40
0.8110718307644571
 40
0.8903449999477594
 40
0.9701160131340656
 40
1.0
 40
1.0
 40
1.0
 40
1.0
 10
486.5067637485615
 20
-257.8024619447073
 30
0.0
 10
486.5066582614251
 20
-257.8092513994158
 30
0.0
 10
486.5061438428304
 20
-257.842360855895
 30
0.0
 10
486.5134472143673
 20
-257.6761094176377
 30
0.0
 10
486.553763039949
 20
-257.2955576735632
 30
0.0
 10
486.6429660238027
 20
-256.6863591779522
 30
0.0
 10
486.795309126817
 20
-255.8836048292648
 30
0.0
 10
487.0236041544978
 20
-254.8962017761769
 30
0.0
 10
487.3383727837599
 20
-253.7421442500007
 30
0.0
 10
487.7476696869925
 20
-252.4402549242084
 30
0.0
 10
488.2564416329539
 20
-251.0128318941258
 30
0.0
 10
488.8667143572001
 20
-249.485079341557
 30
0.0
 10
489.5753840609739
 20
-247.8833846486615
 30
0.0
 10
490.3817472667454
 20
-246.2397990937522
 30
0.0
 10
491.0738225176942
 20
-244.9236094320157
 30
0.0
 10
491.5133741229591
 20
-244.1780310020968
 30
0.0
 10
491.6331639582825
 20
-243.9748404864194
 30
0.0
  0
LWPOLYLINE
  5
D5
330
1F
100
AcDbEntity
  8
0
  6
Continuous
 62
     7
370
    25
100
AcDbPolyline
 90
      101
 70
   128
 43
0.0
 10
367.0096533586
 20
-323.9046594357
 10
370.2152955704
 20
-322.1668490205
 10
373.6036325167
 20
-320.5486681104
 10
377.1612940976
 20
-319.0565029854
 10
380.8742305954
 20
-317.6962381014
 10
384.7277933459
 20
-316.473246016
 10
388.706777215
 20
-315.3923507019
 10
392.7954745992
 20
-314.4578207039
 10
396.977751158
 20
-313.6733406263
 10
401.2371011318
 20
-313.0420096122
 10
405.5567158306
 20
-312.5663200537
 10
409.9195468542
 20
-312.2481454269
 10
414.3083745808
 20
-312.0887433331
 10
418.705881924
 20
-312.0887433331
 10
423.0947096506
 20
-312.2481454269
 10
427.4575406742
 20
-312.5663200537
 10
431.777155373
 20
-313.0420096122
 10
436.0365053468
 20
-313.6733406263
 10
440.2187819056
 20
-314.4578207039
 10
444.3074792898
 20
-315.3923507019
 10
448.2864631589
 20
-316.473246016
 10
452.1400259094
 20
-317.6962381014
 10
455.8529624072
 20
-319.0565029854
 10
459.4106239881
 20
-320.5486681104
 10
462.7989609344
 20
-322.1668490205
 10
466.0046031462
 20
-323.9046594357
 10
469.0149052519
 20
-325.755237294
 10
471.817980523
 20
-327.7112825775
 10
474.4027663998
 20
-329.7650768919
 10
476.7590696009
 20
-331.9085095078
 10
478.8775835755
 20
-334.1331239314
 10
480.7499520522
 20
-336.4301424256
 10
482.3687808934
 20
-338.790497184
 10
483.7276874856
 20
-341.2048740499
 10
484.8213033741
 20
-343.6637444512
 10
485.645311141
 20
-346.1574049378
 10
486.1964654789
 20
-348.6760136776
 10
486.4725879228
 20
-351.2096299947
 10
486.4725879228
 20
-353.7482569477
 10
486.1964654789
 20
-356.2818732647
 10
485.645311141
 20
-358.8004820046
 10
484.8213033741
 20
-361.2941424911
 10
483.7276874856
 20
-363.7530128925
 10
482.3687808934
 20
-366.1673897584
 10
480.7499520522
 20
-368.5277445167
 10
478.8775835755
 20
-370.824763011
 10
476.7590696009
 20
-373.0493774346
 10
474.4027663998
 20
-375.1928100505
 10
471.817980523
 20
-377.2466043649
 10
469.0149052519
 20
-379.2026496484
 10
466.0046031462
 20
-381.0532275066
 10
462.7989609344
 20
-382.7910379219
 10
459.4106239881
 20
-384.409218832
 10
455.8529624072
 20
-385.901383957
 10
452.1400259094
 20
-387.261648841
 10
448.2864631589
 20
-388.4846409264
 10
444.3074792898
 20
-389.5655362405
 10
440.2187819056
 20
-390.5000662385
 10
436.0365053468
 20
-391.284546316
 10
431.777155373
 20
-391.9158773302
 10
427.4575406742
 20
-392.3915668887
 10
423.0947096506
 20
-392.7097415154
 10
418.705881924
 20
-392.8691436093
 10
414.3083745808
 20
-392.8691436093
 10
409.9195468542
 20
-392.7097415154
 10
405.5567158306
 20
-392.3915668887
 10
401.2371011318
 20
-391.9158773302
 10
396.977751158
 20
-391.284546316
 10
392.7954745992
 20
-390.5000662385
 10
388.706777215
 20
-389.5655362405
 10
384.7277933459
 20
-388.4846409264
 10
380.8742305954
 20
-387.261648841
 10
377.1612940976
 20
-385.901383957
 10
373.6036325167
 20
-384.409218832
 10
370.2152955704
 20
-382.7910379219
 10
367.0096533586
 20
-381.0532275066
 10
363.9993512529
 20
-379.2026496484
 10
361.1962759818
 20
-377.2466043649
 10
358.611490105
 20
-375.1928100505
 10
356.2551869039
 20
-373.0493774346
 10
354.1366729293
 20
-370.824763011
 10
352.2643044526
 20
-368.5277445167
 10
350.6454756114
 20
-366.1673897584
 10
349.2865690192
 20
-363.7530128925
 10
348.1929531307
 20
-361.2941424911
 10
347.3689453638
 20
-358.8004820046
 10
346.8177910259
 20
-356.2818732647
 10
346.541668582
 20
-353.7482569477
 10
346.541668582
 20
-351.2096299947
 10
346.8177910259
 20
-348.6760136776
 10
347.3689453638
 20
-346.1574049378
 10
348.1929531307
 20
-343.6637444512
 10
349.2865690192
 20
-341.2048740499
 10
350.6454756114
 20
-338.790497184
 10
352.2643044526
 20
-336.4301424256
 10
354.1366729293
 20
-334.1331239314
 10
356.2551869039
 20
-331.9085095078
 10
358.611490105
 20
-329.7650768919
 10
361.1962759818
 20
-327.7112825775
 10
363.9993512529
 20
-325.755237294
 10
367.0096533586
 20
-323.9046594357
  0
LWPOLYLINE
  5
D6
330
1F
100
AcDbEntity
  8
0
  6
Continuous
 62
     7
370
    25
100
AcDbPolyline
 90
       92
 70
   128
 43
0.0
 10
375.9899087126
 20
-329.088850503
 10
373.2911221961
 20
-330.7582925386
 10
370.7982783523
 20
-332.5312426051
 10
368.5232566656
 20
-334.3992521923
 10
366.4769020469
 20
-336.3534207683
 10
364.6689635892
 20
-338.3844341766
 10
363.1080590059
 20
-340.482615579
 10
361.8016239229
 20
-342.6379638523
 10
360.7558855373
 20
-344.8402083332
 10
359.9758237625
 20
-347.0788555791
 10
359.4651646434
 20
-349.3432357483
 10
359.226334258
 20
-351.6225596263
 10
359.2604732053
 20
-353.9059650056
 10
359.5674181663
 20
-356.1825699102
 10
360.1457071722
 20
-358.4415242982
 10
360.9925861898
 20
-360.6720655667
 10
362.104013073
 20
-362.8635634119
 10
363.4746970752
 20
-365.0055730528
 10
365.0981041178
 20
-367.0878869342
 10
366.9665022297
 20
-369.100582248
 10
369.0709813037
 20
-371.0340688346
 10
371.401515329
 20
-372.8791311915
 10
373.9469968
 20
-374.6269787509
 10
376.6952994427
 20
-376.2692790493
 10
379.6333229959
 20
-377.7982079103
 10
382.7470659802
 20
-379.2064792874
 10
386.0216903999
 20
-380.4873826159
 10
389.4415930308
 20
-381.6348118011
 10
392.9904735793
 20
-382.6433015239
 10
396.651423915
 20
-383.5080422581
 10
400.4069952427
 20
-384.2249160061
 10
404.2392896398
 20
-384.7905065633
 10
408.1300469841
 20
-385.2021162458
 10
412.0607252965
 20
-385.4577879404
 10
416.012592937
 20
-385.5562975007
 10
419.9668155327
 20
-385.4971795991
 10
423.9045534422
 20
-385.2807140404
 10
427.8070381471
 20
-384.9079333655
 10
431.6556723505
 20
-384.3806137268
 10
435.4321182221
 20
-383.7012695666
 10
439.1183777403
 20
-382.8731346079
 10
442.6968862062
 20
-381.9001595737
 10
446.1505859998
 20
-380.786978732
 10
449.463020094
 20
-379.5388954495
 10
452.6184067987
 20
-378.1618603318
 10
455.6017075918
 20
-376.6624351069
 10
458.3987035093
 20
-375.0477637329
 10
460.9960656105
 20
-373.3255408437
 10
463.3814188563
 20
-371.5039748721
 10
465.5433967684
 20
-369.5917473725
 10
467.4716914789
 20
-367.5979689204
 10
469.157116292
 20
-365.5321399555
 10
470.5916435501
 20
-363.404107632
 10
471.7684296586
 20
-361.224011835
 10
472.681873038
 20
-359.0022426011
 10
473.327618075
 20
-356.7493861343
 10
473.7025880494
 20
-354.4761784258
 10
473.8049943546
 20
-352.1934543104
 10
473.6343523017
 20
-349.9120896818
 10
473.1914679492
 20
-347.6429573919
 10
472.4784618104
 20
-345.3968709863
 10
471.4987240725
 20
-343.1845345218
 10
470.2569277672
 20
-341.0164893424
 10
468.7589905755
 20
-338.903067699
 10
467.0120458516
 20
-336.8543425668
 10
465.024424842
 20
-334.8800748014
 10
462.8055947825
 20
-332.9896743622
 10
460.3661328858
 20
-331.1921487988
 10
457.7176634502
 20
-329.4960639037
 10
454.8728076459
 20
-327.909502559
 10
451.8451188128
 20
-326.4400273844
 10
448.6490307647
 20
-325.094638729
 10
445.2997708617
 20
-323.8797488193
 10
441.8133025519
 20
-322.801145548
 10
438.2062382791
 20
-321.8639726106
 10
434.4957667134
 20
-321.072693579
 10
430.699569775
 20
-320.4310804964
 10
426.8357403156
 20
-319.9421876459
 10
422.9226925568
 20
-319.6083485088
 10
418.9790698935
 20
-319.4311529545
 10
415.0236671861
 20
-319.4114449597
 10
411.0753346125
 20
-319.5493188065
 10
407.1528881065
 20
-319.844116041
 10
403.2750171611
 20
-320.2944361183
 10
399.4602044865
 20
-320.8981280383
 10
395.7266272283
 20
-321.6523169583
 10
392.0920766248
 20
-322.553407994
 10
388.5738770064
 20
-323.5971086499
 10
385.1887909651
 20
-324.7784440258
 10
381.9529528412
 20
-326.0917860903
 10
378.8817804789
 20
-327.5308742095
 10
375.9899087126
 20
-329.088850503
  0
LWPOLYLINE
  5
D7
330
1F
100
AcDbEntity
  8
0
  6
Continuous
 62
     7
370
    25
100
AcDbPolyline
 90
      101
 70
   128
 43
0.0
 10
441.2558630651
 20
-76.9080319318
 10
443.5512015084
 20
-78.2335089546
 10
446.0328290222
 20
-79.6665389088
 10
448.6909517324
 20
-81.2014419548
 10
451.5150645372
 20
-82.8321763517
 10
454.4940406684
 20
-84.552298915
 10
457.6161106187
 20
-86.3550136867
 10
460.8689622399
 20
-88.2332236518
 10
464.2397486458
 20
-90.1795048812
 10
467.715177774
 20
-92.1861825811
 10
471.2815229228
 20
-94.2453432589
 10
474.9247175815
 20
-96.3488408112
 10
478.6303817723
 20
-98.4883725663
 10
482.3838905386
 20
-100.6555188293
 10
486.1704213607
 20
-102.8417215889
 10
489.9750489859
 20
-105.0383271042
 10
493.7827427944
 20
-107.2366938846
 10
497.5784879713
 20
-109.4281409811
 10
501.3472855069
 20
-111.6040088173
 10
505.0742786372
 20
-113.7557200303
 10
508.7447633803
 20
-115.8747855453
 10
512.3442280495
 20
-117.9528273883
 10
515.8584895717
 20
-119.9816695621
 10
519.2736737312
 20
-121.9532779616
 10
522.5762997927
 20
-123.8598822364
 10
525.7533400995
 20
-125.6939493607
 10
528.7922441102
 20
-127.4482705099
 10
531.6810302662
 20
-129.1158924287
 10
534.4082935643
 20
-130.6902434686
 10
536.963271741
 20
-132.1650987947
 10
539.3358837969
 20
-133.5346634607
 10
541.5167513996
 20
-134.793511754
 10
543.4972844947
 20
-135.9366852974
 10
545.2696701101
 20
-136.9596744047
 10
546.8268907954
 20
-137.8584287236
 10
548.1628194527
 20
-138.6294119883
 10
549.2721771891
 20
-139.2695898396
 10
550.1505965374
 20
-139.7764054909
 10
550.7945951143
 20
-140.1478861809
 10
551.2016362063
 20
-140.382568649
 10
551.3701182332
 20
-140.4795052097
 10
551.2993800163
 20
-140.4383154601
 10
550.9896849735
 20
-140.2591771474
 10
550.4422685341
 20
-139.9427927064
 10
549.6592854559
 20
-139.4904075016
 10
548.643830898
 20
-138.90381591
 10
547.3999035427
 20
-138.1853156849
 10
545.9324240346
 20
-137.3377490199
 10
544.2471770285
 20
-136.3644751633
 10
542.3508111899
 20
-135.2693095826
 10
540.2508128527
 20
-134.0566000027
 10
537.9554744094
 20
-132.7311229799
 10
535.473852164
 20
-131.2980899844
 10
532.8157294537
 20
-129.7631869383
 10
529.9916113806
 20
-128.1324555828
 10
527.0126405178
 20
-126.4123299781
 10
523.8905705675
 20
-124.6096152064
 10
520.6377189462
 20
-122.7313930739
 10
517.266927272
 20
-120.7851270533
 10
513.7915034121
 20
-118.778446312
 10
510.225152995
 20
-116.7192886756
 10
506.5819583363
 20
-114.6157911233
 10
502.8762994139
 20
-112.4762441595
 10
499.1227906476
 20
-110.3090978964
 10
495.3362545571
 20
-108.122922513
 10
491.5316322002
 20
-105.9262896216
 10
487.7239383918
 20
-103.7279350085
 10
483.9281984832
 20
-101.536497038
 10
480.1593930451
 20
-99.3606094291
 10
476.4323999148
 20
-97.2089103836
 10
472.7619230742
 20
-95.0898524739
 10
469.1624505025
 20
-93.0117908581
 10
465.6481889803
 20
-90.9829730192
 10
462.2330048208
 20
-89.0113646196
 10
458.9303761251
 20
-87.1047618655
 10
455.7533410867
 20
-85.2706673651
 10
452.7144318076
 20
-83.516373592
 10
449.8256482858
 20
-81.8487501525
 10
447.0983849877
 20
-80.2743991126
 10
444.543406811
 20
-78.7995194517
 10
442.1708026577
 20
-77.4299745585
 10
439.9899271523
 20
-76.1711186598
 10
438.0093940573
 20
-75.027932949
 10
436.2370163444
 20
-74.0049636145
 10
434.6797903907
 20
-73.1062001695
 10
433.3438617335
 20
-72.3352047375
 10
432.2344987287
 20
-71.6950542623
 10
431.3560846488
 20
-71.1882112348
 10
430.7120860719
 20
-70.8167305448
 10
430.3050397115
 20
-70.5820632855
 10
430.1365576846
 20
-70.4851267248
 10
430.2073011698
 20
-70.5263134331
 10
430.5169909443
 20
-70.7054547871
 10
431.064412652
 20
-71.0218240194
 10
431.8473957302
 20
-71.4742213915
 10
432.8628502881
 20
-72.0608129831
 10
434.1067723751
 20
-72.7793162496
 10
435.5742571516
 20
-73.6268798732
 10
437.2595041577
 20
-74.6001537298
 10
439.1558647279
 20
-75.6953223519
 10
441.2558630651
 20
-76.9080319318
  0
LWPOLYLINE
  5
D8
330
1F
100
AcDbEntity
  8
0
  6
Continuous
 62
     7
370
    25
100
AcDbPolyline
 90
       92
 70
   128
 43
0.0
 10
450.2361184191
 20
-82.0922229991
 10
448.3560686792
 20
-81.0065102791
 10
446.678055126
 20
-80.0374627524
 10
445.2100777582
 20
-79.1896518101
 10
443.9591434894
 20
-78.4671242015
 10
442.9311950251
 20
-77.8733731289
 10
442.1311477416
 20
-77.4111526934
 10
441.5628080261
 20
-77.0827288386
 10
441.2288811795
 20
-76.8896223083
 10
441.1309556112
 20
-76.8327881103
 10
441.2695133757
 20
-76.9124816691
 10
441.6438774892
 20
-77.1283196531
 10
442.2522698816
 20
-77.4792769289
 10
443.0917955913
 20
-77.9636895954
 10
444.1584480334
 20
-78.5792336819
 10
445.4471498298
 20
-79.3229852188
 10
446.9517514919
 20
-80.1913951352
 10
448.6650920067
 20
-81.1803303165
 10
450.5789988368
 20
-82.2850796796
 10
452.6843570678
 20
-83.500363673
 10
454.9711291641
 20
-84.8204065131
 10
457.4284224705
 20
-86.2389021473
 10
460.0445183519
 20
-87.7491162419
 10
462.8069638965
 20
-89.3438296207
 10
465.7025798176
 20
-91.0154584058
 10
468.71757537
 20
-92.7560351959
 10
471.8375867101
 20
-94.5572372896
 10
475.0477323785
 20
-96.4105221365
 10
478.3327262401
 20
-98.3070161183
 10
481.6769140333
 20
-100.2377303223
 10
485.0643484444
 20
-102.1934213717
 10
488.4788964499
 20
-104.164787245
 10
491.9042814639
 20
-106.1424125153
 10
495.3241847533
 20
-108.1169242436
 10
498.7223060247
 20
-110.078856615
 10
502.0824503513
 20
-112.0188958033
 10
505.3886071992
 20
-113.9278039252
 10
508.6250162811
 20
-115.7964327268
 10
511.7762623873
 20
-117.6159365134
 10
514.8273254346
 20
-119.3775941993
 10
517.763662126
 20
-121.0730572214
 10
520.5712823421
 20
-122.6942111339
 10
523.2368097268
 20
-124.2333444353
 10
525.7475370052
 20
-125.683107502
 10
528.0914971067
 20
-127.0366144937
 10
530.2575290188
 20
-128.2874083777
 10
532.2353067636
 20
-129.4295324129
 10
534.0153999839
 20
-130.4575286325
 10
535.5893266264
 20
-131.3665047704
 10
536.9495977228
 20
-132.1521357874
 10
538.0897200244
 20
-132.8106714783
 10
539.0042565877
 20
-133.3389714601
 10
539.688861019
 20
-133.7345249501
 10
540.1402695716
 20
-133.9954401253
 10
540.3563143171
 20
-134.1204882319
 10
540.3359942677
 20
-134.1090473263
 10
540.0793779122
 20
-133.961192005
 10
539.5877059484
 20
-133.6776249796
 10
538.8633175263
 20
-133.2596953294
 10
537.9096581509
 20
-132.7093909058
 10
536.7312744133
 20
-132.0293474641
 10
535.3337902838
 20
-131.2227863156
 10
533.7238675986
 20
-130.2935523551
 10
531.9091573277
 20
-129.2460859294
 10
529.8983259169
 20
-128.0853893909
 10
527.7009584815
 20
-126.8169590372
 10
525.3275048057
 20
-125.4468756132
 10
522.7892954771
 20
-123.9816432954
 10
520.0984236778
 20
-122.4282431157
 10
517.267705507
 20
-120.79411006
 10
514.3106363527
 20
-119.086986212
 10
511.2413075857
 20
-117.3150430012
 10
508.074340705
 20
-115.486709345
 10
504.8248377826
 20
-113.6107038794
 10
501.508268029
 20
-111.6959572976
 10
498.1404529759
 20
-109.7516038064
 10
494.7374308163
 20
-107.786902795
 10
491.3154241357
 20
-105.811220213
 10
487.8907398131
 20
-103.8339707743
 10
484.4796926302
 20
-101.8645860233
 10
481.0985539046
 20
-99.9124238423
 10
477.76341583
 20
-97.9868117951
 10
474.4901756709
 20
-96.0969285019
 10
471.2944462003
 20
-94.2517519266
 10
468.1914450647
 20
-92.4601050028
 10
465.1959579056
 20
-90.730524836
 10
462.3222646019
 20
-89.0712262013
 10
459.5840602453
 20
-87.490135
 10
456.9943945538
 20
-85.9947985261
 10
454.5656007488
 20
-84.5923200612
 10
452.3092586771
 20
-83.2893862523
 10
450.2361184191
 20
-82.0922229991
  0
LWPOLYLINE
  5
D9
330
1F
100
AcDbEntity
  8
0
  6
Continuous
 62
     1
370
    25
100
AcDbPolyline
 90
       14
 70
   128
 43
0.0
 10
466.0046031462
 20
-229.1818032318
 10
469.0149052519
 20
-231.03238109
 10
471.817980523
 20
-232.9884263735
 10
474.4027663998
 20
-235.0422206879
 10
476.7590696009
 20
-237.1856533038
 10
478.8775835755
 20
-239.4102677274
 10
480.7499520522
 20
-241.7072862217
 10
482.3687808934
 20
-244.06764098
 10
483.7276874856
 20
-246.4820178459
 10
484.8213033741
 20
-248.9408882473
 10
485.645311141
 20
-251.4345487338
 10
486.1964654789
 20
-253.9531574737
 10
486.4725879228
 20
-256.4867737907
 10
486.5071272651
 20
-257.7560872672
  0
LWPOLYLINE
  5
DA
330
1F
100
AcDbEntity
  8
0
  6
Continuous
 62
     1
370
    25
100
AcDbPolyline
 90
       39
 70
   128
 43
0.0
 10
346.5071292397
 20
-257.7560872672
 10
346.541668582
 20
-256.4867737907
 10
346.8177910259
 20
-253.9531574737
 10
347.3689453638
 20
-251.4345487338
 10
348.1929531307
 20
-248.9408882473
 10
349.2865690192
 20
-246.4820178459
 10
350.6454756114
 20
-244.06764098
 10
352.2643044526
 20
-241.7072862217
 10
354.1366729293
 20
-239.4102677274
 10
356.2551869039
 20
-237.1856533038
 10
358.611490105
 20
-235.0422206879
 10
361.1962759818
 20
-232.9884263735
 10
363.9993512529
 20
-231.03238109
 10
367.0096533586
 20
-229.1818032318
 10
370.2152955704
 20
-227.4439928165
 10
373.6036325167
 20
-225.8258119064
 10
377.1612940976
 20
-224.3336467814
 10
380.8742305954
 20
-222.9733818974
 10
384.7277933459
 20
-221.750389812
 10
388.706777215
 20
-220.6694944979
 10
392.7954745992
 20
-219.7349644999
 10
396.977751158
 20
-218.9504844223
 10
401.2371011318
 20
-218.3191534082
 10
405.5567158306
 20
-217.8434638497
 10
409.9195468542
 20
-217.5252892229
 10
414.3083745808
 20
-217.3658871291
 10
418.705881924
 20
-217.3658871291
 10
423.0947096506
 20
-217.5252892229
 10
427.4575406742
 20
-217.8434638497
 10
431.777155373
 20
-218.3191534082
 10
436.0365053468
 20
-218.9504844223
 10
440.2187819056
 20
-219.7349644999
 10
444.3074792898
 20
-220.6694944979
 10
448.2864631589
 20
-221.750389812
 10
452.1400259094
 20
-222.9733818974
 10
455.8529624072
 20
-224.3336467814
 10
459.4106239881
 20
-225.8258119064
 10
462.7989609344
 20
-227.4439928165
 10
466.0046031462
 20
-229.1818032318
  0
LWPOLYLINE
  5
DB
330
1F
100
AcDbEntity
  8
0
  6
Continuous
 62
     1
370
    25
100
AcDbPolyline
 90
       17
 70
   128
 43
0.0
 10
466.0046031462
 20
-229.1818032318
 10
469.0435124253
 20
-230.9361091723
 10
471.9322933129
 20
-232.6037341324
 10
474.659556611
 20
-234.1780851723
 10
477.2145347877
 20
-235.6529526658
 10
479.5871415752
 20
-237.0225142895
 10
481.7680144464
 20
-238.2813656251
 10
483.7485475415
 20
-239.4245391685
 10
485.5209278885
 20
-240.4475252335
 10
487.0781538422
 20
-241.3462825947
 10
488.4140824994
 20
-242.1172658594
 10
489.5234455042
 20
-242.757428502
 10
490.4018569499
 20
-243.2642608827
 10
491.045858161
 20
-243.635740052
 10
491.4529018872
 20
-243.870408832
 10
491.6213839141
 20
-243.9673453927
 10
491.6263809499
 20
-243.970164827
  0
LWPOLYLINE
  5
DC
330
1F
100
AcDbEntity
  8
0
  6
Continuous
 62
     1
370
    25
100
AcDbPolyline
 90
       36
 70
   128
 43
0.0
 10
370.3828236956
 20
-173.9701611617
 10
370.4585638873
 20
-174.0141553268
 10
370.7682561313
 20
-174.1932952553
 10
371.3156745875
 20
-174.509678532
 10
372.0986561428
 20
-174.9620646159
 10
373.1141130056
 20
-175.5486670443
 10
374.3580373975
 20
-176.2671689802
 10
375.8255208569
 20
-177.1147211967
 10
377.5107658873
 20
-178.0880083613
 10
379.4071304088
 20
-179.1831625349
 10
381.5071274289
 20
-180.3958850426
 10
383.8024658723
 20
-181.7213620654
 10
386.2840920689
 20
-183.1543806125
 10
388.942212145
 20
-184.6892973466
 10
391.7663302181
 20
-186.3200287021
 10
394.7453037152
 20
-188.0401406187
 10
397.8673736654
 20
-189.8428675578
 10
401.1202252867
 20
-191.7210775229
 10
404.4910143267
 20
-193.6673572316
 10
407.9664408208
 20
-195.6740364522
 10
411.5327886037
 20
-197.7331834419
 10
415.1759832625
 20
-199.8366809942
 10
418.881644819
 20
-201.9762264374
 10
422.6351509512
 20
-204.1433742211
 10
426.4216896758
 20
-206.3295602513
 10
430.2263120327
 20
-208.5261809753
 10
434.0340058411
 20
-210.7245477557
 10
437.8297457497
 20
-212.9159918099
 10
441.5985485536
 20
-215.0918626884
 10
445.3255416839
 20
-217.2435739014
 10
448.9960211587
 20
-219.362636374
 10
452.5954910962
 20
-221.4406812594
 10
456.1097526184
 20
-223.4695112658
 10
459.524936778
 20
-225.4411196653
 10
462.8275681078
 20
-227.3477208988
 10
466.0046031462
 20
-229.1818032318
  0
ENDSEC
  0
SECTION
  2
OBJECTS
  0
DICTIONARY
  5
C
330
0
100
AcDbDictionary
281
     1
  3
ACAD_GROUP
350
D
  3
ACAD_LAYOUT
350
1A
  3
ACAD_MLINESTYLE
350
17
  3
ACAD_PLOTSETTINGS
350
19
  3
ACAD_PLOTSTYLENAME
350
E
  3
ACAD_SCALELIST
350
47
  0
DICTIONARY
  5
D
102
{ACAD_REACTORS
330
C
102
}
330
C
100
AcDbDictionary
281
     1
  0
DICTIONARY
  5
1A
102
{ACAD_REACTORS
330
C
102
}
330
C
100
AcDbDictionary
281
     1
  3
Layout1
350
1E
  3
Layout2
350
26
  3
Model
350
22
  0
DICTIONARY
  5
17
102
{ACAD_REACTORS
330
C
102
}
330
C
100
AcDbDictionary
281
     1
  3
Standard
350
18
  0
DICTIONARY
  5
19
102
{ACAD_REACTORS
330
C
102
}
330
C
100
AcDbDictionary
281
     1
  0
ACDBDICTIONARYWDFLT
  5
E
102
{ACAD_REACTORS
330
C
102
}
330
C
100
AcDbDictionary
281
     1
  3
Normal
350
F
100
AcDbDictionaryWithDefault
340
F
  0
DICTIONARY
  5
47
102
{ACAD_REACTORS
330
C
102
}
330
C
100
AcDbDictionary
281
     1
  3
A0
350
48
  3
A1
350
49
  3
A2
350
4A
  3
A3
350
4B
  3
A4
350
4C
  3
A5
350
4D
  3
A6
350
4E
  3
A7
350
4F
  3
A8
350
50
  3
A9
350
51
  3
B0
350
52
  3
B1
350
53
  3
B2
350
54
  3
B3
350
55
  3
B4
350
56
  3
B5
350
57
  3
B6
350
58
  3
B7
350
59
  3
B8
350
5A
  3
B9
350
5B
  3
C0
350
5C
  3
C1
350
5D
  3
C2
350
5E
  3
C3
350
5F
  3
C4
350
60
  3
C5
350
61
  3
C6
350
62
  3
C7
350
63
  3
C8
350
64
  3
C9
350
65
  3
D0
350
66
  3
D1
350
67
  3
D2
350
68
  0
LAYOUT
  5
1E
102
{ACAD_REACTORS
330
1A
102
}
330
1A
100
AcDbPlotSettings
  1

  2
none_device
  4

  6

 40
0.0
 41
0.0
 42
0.0
 43
0.0
 44
0.0
 45
0.0
 46
0.0
 47
0.0
 48
0.0
 49
0.0
140
0.0
141
0.0
142
1.0
143
1.0
 70
   688
 72
     1
 73
     0
 74
     5
  7

 75
    16
147
1.0
148
0.0
149
0.0
100
AcDbLayout
  1
Layout1
 70
     1
 71
     1
 10
0.0
 20
0.0
 11
420.0
 21
297.0
 12
0.0
 22
0.0
 32
0.0
 14
1.0000000000E+20
 24
1.0000000000E+20
 34
1.0000000000E+20
 15
-1.0000000000E+20
 25
-1.0000000000E+20
 35
-1.0000000000E+20
146
0.0
 13
0.0
 23
0.0
 33
0.0
 16
1.0
 26
0.0
 36
0.0
 17
0.0
 27
1.0
 37
0.0
 76
     0
330
1B
  0
LAYOUT
  5
26
102
{ACAD_REACTORS
330
1A
102
}
330
1A
100
AcDbPlotSettings
  1

  2
none_device
  4

  6

 40
0.0
 41
0.0
 42
0.0
 43
0.0
 44
0.0
 45
0.0
 46
0.0
 47
0.0
 48
0.0
 49
0.0
140
0.0
141
0.0
142
1.0
143
1.0
 70
   688
 72
     1
 73
     0
 74
     5
  7

 75
    16
147
1.0
148
0.0
149
0.0
100
AcDbLayout
  1
Layout2
 70
     1
 71
     2
 10
0.0
 20
0.0
 11
0.0
 21
0.0
 12
0.0
 22
0.0
 32
0.0
 14
0.0
 24
0.0
 34
0.0
 15
0.0
 25
0.0
 35
0.0
146
0.0
 13
0.0
 23
0.0
 33
0.0
 16
1.0
 26
0.0
 36
0.0
 17
0.0
 27
1.0
 37
0.0
 76
     0
330
23
  0
LAYOUT
  5
22
102
{ACAD_REACTORS
330
1A
102
}
330
1A
100
AcDbPlotSettings
  1

  2
none_device
  4
Letter_(8.50_x_11.00_Inches)
  6

 40
6.35
 41
6.35
 42
6.35000508
 43
6.35000508
 44
215.9
 45
279.4
 46
0.0
 47
0.0
 48
0.0
 49
0.0
140
0.0
141
0.0
142
1.0
143
1.0
 70
  1712
 72
     1
 73
     0
 74
     0
  7

 75
     0
147
1.0
148
0.0
149
0.0
100
AcDbLayout
  1
Model
 70
     1
 71
     0
 10
0.0
 20
0.0
 11
279.4
 21
215.9
 12
0.0
 22
0.0
 32
0.0
 14
0.0
 24
0.0
 34
0.0
 15
279.4
 25
215.9
 35
0.0
146
0.0
 13
0.0
 23
0.0
 33
0.0
 16
1.0
 26
0.0
 36
0.0
 17
0.0
 27
1.0
 37
0.0
 76
     0
330
1F
331
29
  0
MLINESTYLE
  5
18
102
{ACAD_REACTORS
330
17
102
}
330
17
100
AcDbMlineStyle
  2
Standard
 70
     0
  3

 62
   256
 51
90.0
 52
90.0
 71
     2
 49
0.5
 62
   256
  6
BYLAYER
 49
-0.5
 62
   256
  6
BYLAYER
  0
ACDBPLACEHOLDER
  5
F
102
{ACAD_REACTORS
330
E
102
}
330
E
  0
SCALE
  5
48
102
{ACAD_REACTORS
330
47
102
}
330
47
100
AcDbScale
 70
     0
300
1:1
140
1.0
141
1.0
290
     1
  0
SCALE
  5
49
102
{ACAD_REACTORS
330
47
102
}
330
47
100
AcDbScale
 70
     0
300
1:2
140
1.0
141
2.0
290
     0
  0
SCALE
  5
4A
102
{ACAD_REACTORS
330
47
102
}
330
47
100
AcDbScale
 70
     0
300
1:4
140
1.0
141
4.0
290
     0
  0
SCALE
  5
4B
102
{ACAD_REACTORS
330
47
102
}
330
47
100
AcDbScale
 70
     0
300
1:5
140
1.0
141
5.0
290
     0
  0
SCALE
  5
4C
102
{ACAD_REACTORS
330
47
102
}
330
47
100
AcDbScale
 70
     0
300
1:8
140
1.0
141
8.0
290
     0
  0
SCALE
  5
4D
102
{ACAD_REACTORS
330
47
102
}
330
47
100
AcDbScale
 70
     0
300
1:10
140
1.0
141
10.0
290
     0
  0
SCALE
  5
4E
102
{ACAD_REACTORS
330
47
102
}
330
47
100
AcDbScale
 70
     0
300
1:16
140
1.0
141
16.0
290
     0
  0
SCALE
  5
4F
102
{ACAD_REACTORS
330
47
102
}
330
47
100
AcDbScale
 70
     0
300
1:20
140
1.0
141
20.0
290
     0
  0
SCALE
  5
50
102
{ACAD_REACTORS
330
47
102
}
330
47
100
AcDbScale
 70
     0
300
1:30
140
1.0
141
30.0
290
     0
  0
SCALE
  5
51
102
{ACAD_REACTORS
330
47
102
}
330
47
100
AcDbScale
 70
     0
300
1:40
140
1.0
141
40.0
290
     0
  0
SCALE
  5
52
102
{ACAD_REACTORS
330
47
102
}
330
47
100
AcDbScale
 70
     0
300
1:50
140
1.0
141
50.0
290
     0
  0
SCALE
  5
53
102
{ACAD_REACTORS
330
47
102
}
330
47
100
AcDbScale
 70
     0
300
1:100
140
1.0
141
100.0
290
     0
  0
SCALE
  5
54
102
{ACAD_REACTORS
330
47
102
}
330
47
100
AcDbScale
 70
     0
300
2:1
140
2.0
141
1.0
290
     0
  0
SCALE
  5
55
102
{ACAD_REACTORS
330
47
102
}
330
47
100
AcDbScale
 70
     0
300
4:1
140
4.0
141
1.0
290
     0
  0
SCALE
  5
56
102
{ACAD_REACTORS
330
47
102
}
330
47
100
AcDbScale
 70
     0
300
8:1
140
8.0
141
1.0
290
     0
  0
SCALE
  5
57
102
{ACAD_REACTORS
330
47
102
}
330
47
100
AcDbScale
 70
     0
300
10:1
140
10.0
141
1.0
290
     0
  0
SCALE
  5
58
102
{ACAD_REACTORS
330
47
102
}
330
47
100
AcDbScale
 70
     0
300
100:1
140
100.0
141
1.0
290
     0
  0
SCALE
  5
59
102
{ACAD_REACTORS
330
47
102
}
330
47
100
AcDbScale
 70
     0
300
1/128" = 1'-0"
140
0.0078125
141
12.0
290
     0
  0
SCALE
  5
5A
102
{ACAD_REACTORS
330
47
102
}
330
47
100
AcDbScale
 70
     0
300
1/64" = 1'-0"
140
0.015625
141
12.0
290
     0
  0
SCALE
  5
5B
102
{ACAD_REACTORS
330
47
102
}
330
47
100
AcDbScale
 70
     0
300
1/32" = 1'-0"
140
0.03125
141
12.0
290
     0
  0
SCALE
  5
5C
102
{ACAD_REACTORS
330
47
102
}
330
47
100
AcDbScale
 70
     0
300
1/16" = 1'-0"
140
0.0625
141
12.0
290
     0
  0
SCALE
  5
5D
102
{ACAD_REACTORS
330
47
102
}
330
47
100
AcDbScale
 70
     0
300
3/32" = 1'-0"
140
0.09375
141
12.0
290
     0
  0
SCALE
  5
5E
102
{ACAD_REACTORS
330
47
102
}
330
47
100
AcDbScale
 70
     0
300
1/8" = 1'-0"
140
0.125
141
12.0
290
     0
  0
SCALE
  5
5F
102
{ACAD_REACTORS
330
47
102
}
330
47
100
AcDbScale
 70
     0
300
3/16" = 1'-0"
140
0.1875
141
12.0
290
     0
  0
SCALE
  5
60
102
{ACAD_REACTORS
330
47
102
}
330
47
100
AcDbScale
 70
     0
300
1/4" = 1'-0"
140
0.25
141
12.0
290
     0
  0
SCALE
  5
61
102
{ACAD_REACTORS
330
47
102
}
330
47
100
AcDbScale
 70
     0
300
3/8" = 1'-0"
140
0.375
141
12.0
290
     0
  0
SCALE
  5
62
102
{ACAD_REACTORS
330
47
102
}
330
47
100
AcDbScale
 70
     0
300
1/2" = 1'-0"
140
0.5
141
12.0
290
     0
  0
SCALE
  5
63
102
{ACAD_REACTORS
330
47
102
}
330
47
100
AcDbScale
 70
     0
300
3/4" = 1'-0"
140
0.75
141
12.0
290
     0
  0
SCALE
  5
64
102
{ACAD_REACTORS
330
47
102
}
330
47
100
AcDbScale
 70
     0
300
1" = 1'-0"
140
1.0
141
12.0
290
     0
  0
SCALE
  5
65
102
{ACAD_REACTORS
330
47
102
}
330
47
100
AcDbScale
 70
     0
300
1-1/2" = 1'-0"
140
1.5
141
12.0
290
     0
  0
SCALE
  5
66
102
{ACAD_REACTORS
330
47
102
}
330
47
100
AcDbScale
 70
     0
300
3" = 1'-0"
140
3.0
141
12.0
290
     0
  0
SCALE
  5
67
102
{ACAD_REACTORS
330
47
102
}
330
47
100
AcDbScale
 70
     0
300
6" = 1'-0"
140
6.0
141
12.0
290
     0
  0
SCALE
  5
68
102
{ACAD_REACTORS
330
47
102
}
330
47
100
AcDbScale
 70
     0
300
1'-0" = 1'-0"
140
12.0
141
12.0
290
     0
  0
ENDSEC
  0
EOF
